  0
SECTION
  2
HEADER
  9
$ACADVER
  1
AC1015
  9
$ACADMAINTVER
 70
     6
  9
$DWGCODEPAGE
  3
ANSI_1252
  9
$INSBASE
 10
0.0
 20
0.0
 30
0.0
  9
$EXTMIN
 10
1.000000000000000E+20
 20
1.000000000000000E+20
 30
1.000000000000000E+20
  9
$EXTMAX
 10
-1.000000000000000E+20
 20
-1.000000000000000E+20
 30
-1.000000000000000E+20
  9
$LIMMIN
 10
0.0
 20
0.0
  9
$LIMMAX
 10
12.0
 20
9.0
  9
$ORTHOMODE
 70
     0
  9
$REGENMODE
 70
     1
  9
$FILLMODE
 70
     1
  9
$QTEXTMODE
 70
     0
  9
$MIRRTEXT
 70
     1
  9
$LTSCALE
 40
1.0
  9
$ATTMODE
 70
     1
  9
$TEXTSIZE
 40
0.2
  9
$TRACEWID
 40
0.05
  9
$TEXTSTYLE
  7
Standard
  9
$CLAYER
  8
0
  9
$CELTYPE
  6
ByLayer
  9
$CECOLOR
 62
   256
  9
$CELTSCALE
 40
1.0
  9
$DISPSILH
 70
     0
  9
$DIMSCALE
 40
1.0
  9
$DIMASZ
 40
0.18
  9
$DIMEXO
 40
0.0625
  9
$DIMDLI
 40
0.38
  9
$DIMRND
 40
0.0
  9
$DIMDLE
 40
0.0
  9
$DIMEXE
 40
0.18
  9
$DIMTP
 40
0.0
  9
$DIMTM
 40
0.0
  9
$DIMTXT
 40
0.18
  9
$DIMCEN
 40
0.09
  9
$DIMTSZ
 40
0.0
  9
$DIMTOL
 70
     0
  9
$DIMLIM
 70
     0
  9
$DIMTIH
 70
     1
  9
$DIMTOH
 70
     1
  9
$DIMSE1
 70
     0
  9
$DIMSE2
 70
     0
  9
$DIMTAD
 70
     0
  9
$DIMZIN
 70
     0
  9
$DIMBLK
  1

  9
$DIMASO
 70
     1
  9
$DIMSHO
 70
     1
  9
$DIMPOST
  1

  9
$DIMAPOST
  1

  9
$DIMALT
 70
     0
  9
$DIMALTD
 70
     2
  9
$DIMALTF
 40
25.4
  9
$DIMLFAC
 40
1.0
  9
$DIMTOFL
 70
     0
  9
$DIMTVP
 40
0.0
  9
$DIMTIX
 70
     0
  9
$DIMSOXD
 70
     0
  9
$DIMSAH
 70
     0
  9
$DIMBLK1
  1

  9
$DIMBLK2
  1

  9
$DIMSTYLE
  2
Standard
  9
$DIMCLRD
 70
     0
  9
$DIMCLRE
 70
     0
  9
$DIMCLRT
 70
     0
  9
$DIMTFAC
 40
1.0
  9
$DIMGAP
 40
0.09
  9
$DIMJUST
 70
     0
  9
$DIMSD1
 70
     0
  9
$DIMSD2
 70
     0
  9
$DIMTOLJ
 70
     1
  9
$DIMTZIN
 70
     0
  9
$DIMALTZ
 70
     0
  9
$DIMALTTZ
 70
     0
  9
$DIMUPT
 70
     0
  9
$DIMDEC
 70
     4
  9
$DIMTDEC
 70
     4
  9
$DIMALTU
 70
     2
  9
$DIMALTTD
 70
     2
  9
$DIMTXSTY
  7
Standard
  9
$DIMAUNIT
 70
     0
  9
$DIMADEC
 70
     0
  9
$DIMALTRND
 40
0.0
  9
$DIMAZIN
 70
     0
  9
$DIMDSEP
 70
    46
  9
$DIMATFIT
 70
     3
  9
$DIMFRAC
 70
     0
  9
$DIMLDRBLK
  1

  9
$DIMLUNIT
 70
     2
  9
$DIMLWD
 70
    -2
  9
$DIMLWE
 70
    -2
  9
$DIMTMOVE
 70
     0
  9
$LUNITS
 70
     2
  9
$LUPREC
 70
     4
  9
$SKETCHINC
 40
0.1
  9
$FILLETRAD
 40
0.5
  9
$AUNITS
 70
     0
  9
$AUPREC
 70
     0
  9
$MENU
  1
.
  9
$ELEVATION
 40
0.0
  9
$PELEVATION
 40
0.0
  9
$THICKNESS
 40
0.0
  9
$LIMCHECK
 70
     0
  9
$CHAMFERA
 40
0.5
  9
$CHAMFERB
 40
0.5
  9
$CHAMFERC
 40
1.0
  9
$CHAMFERD
 40
0.0
  9
$SKPOLY
 70
     0
  9
$TDCREATE
 40
2458933.540722338
  9
$TDUCREATE
 40
2458933.499055672
  9
$TDUPDATE
 40
2458933.540722535
  9
$TDUUPDATE
 40
2458933.499055868
  9
$TDINDWG
 40
0.0000000116
  9
$TDUSRTIMER
 40
0.0000000116
  9
$USRTIMER
 70
     1
  9
$ANGBASE
 50
0.0
  9
$ANGDIR
 70
     0
  9
$PDMODE
 70
     0
  9
$PDSIZE
 40
0.0
  9
$PLINEWID
 40
0.0
  9
$SPLFRAME
 70
     0
  9
$SPLINETYPE
 70
     6
  9
$SPLINESEGS
 70
     8
  9
$HANDSEED
  5
38A
  9
$SURFTAB1
 70
     6
  9
$SURFTAB2
 70
     6
  9
$SURFTYPE
 70
     6
  9
$SURFU
 70
     6
  9
$SURFV
 70
     6
  9
$UCSBASE
  2

  9
$UCSNAME
  2

  9
$UCSORG
 10
0.0
 20
0.0
 30
0.0
  9
$UCSXDIR
 10
1.0
 20
0.0
 30
0.0
  9
$UCSYDIR
 10
0.0
 20
1.0
 30
0.0
  9
$UCSORTHOREF
  2

  9
$UCSORTHOVIEW
 70
     0
  9
$UCSORGTOP
 10
0.0
 20
0.0
 30
0.0
  9
$UCSORGBOTTOM
 10
0.0
 20
0.0
 30
0.0
  9
$UCSORGLEFT
 10
0.0
 20
0.0
 30
0.0
  9
$UCSORGRIGHT
 10
0.0
 20
0.0
 30
0.0
  9
$UCSORGFRONT
 10
0.0
 20
0.0
 30
0.0
  9
$UCSORGBACK
 10
0.0
 20
0.0
 30
0.0
  9
$PUCSBASE
  2

  9
$PUCSNAME
  2

  9
$PUCSORG
 10
0.0
 20
0.0
 30
0.0
  9
$PUCSXDIR
 10
1.0
 20
0.0
 30
0.0
  9
$PUCSYDIR
 10
0.0
 20
1.0
 30
0.0
  9
$PUCSORTHOREF
  2

  9
$PUCSORTHOVIEW
 70
     0
  9
$PUCSORGTOP
 10
0.0
 20
0.0
 30
0.0
  9
$PUCSORGBOTTOM
 10
0.0
 20
0.0
 30
0.0
  9
$PUCSORGLEFT
 10
0.0
 20
0.0
 30
0.0
  9
$PUCSORGRIGHT
 10
0.0
 20
0.0
 30
0.0
  9
$PUCSORGFRONT
 10
0.0
 20
0.0
 30
0.0
  9
$PUCSORGBACK
 10
0.0
 20
0.0
 30
0.0
  9
$USERI1
 70
     0
  9
$USERI2
 70
     0
  9
$USERI3
 70
     0
  9
$USERI4
 70
     0
  9
$USERI5
 70
     0
  9
$USERR1
 40
0.0
  9
$USERR2
 40
0.0
  9
$USERR3
 40
0.0
  9
$USERR4
 40
0.0
  9
$USERR5
 40
0.0
  9
$WORLDVIEW
 70
     1
  9
$SHADEDGE
 70
     3
  9
$SHADEDIF
 70
    70
  9
$TILEMODE
 70
     1
  9
$MAXACTVP
 70
    64
  9
$PINSBASE
 10
0.0
 20
0.0
 30
0.0
  9
$PLIMCHECK
 70
     0
  9
$PEXTMIN
 10
1.000000000000000E+20
 20
1.000000000000000E+20
 30
1.000000000000000E+20
  9
$PEXTMAX
 10
-1.000000000000000E+20
 20
-1.000000000000000E+20
 30
-1.000000000000000E+20
  9
$PLIMMIN
 10
0.0
 20
0.0
  9
$PLIMMAX
 10
12.0
 20
9.0
  9
$UNITMODE
 70
     0
  9
$VISRETAIN
 70
     1
  9
$PLINEGEN
 70
     0
  9
$PSLTSCALE
 70
     1
  9
$TREEDEPTH
 70
  3020
  9
$CMLSTYLE
  2
Standard
  9
$CMLJUST
 70
     0
  9
$CMLSCALE
 40
1.0
  9
$PROXYGRAPHICS
 70
     1
  9
$MEASUREMENT
 70
     0
  9
$CELWEIGHT
370
    -1
  9
$ENDCAPS
280
     0
  9
$JOINSTYLE
280
     0
  9
$LWDISPLAY
290
     1
  9
$INSUNITS
 70
     4
  9
$HYPERLINKBASE
  1

  9
$STYLESHEET
  1

  9
$XEDIT
290
     1
  9
$CEPSNTYPE
380
     0
  9
$PSTYLEMODE
290
     1
  9
$FINGERPRINTGUID
  2
{C9CBFA6D-BD3D-4DE0-82B1-1786E8322A86}
  9
$VERSIONGUID
  2
{FAEB1C32-E019-11D5-929B-00C0DF256EC4}
  9
$EXTNAMES
290
     1
  9
$PSVPSCALE
 40
0.0
  9
$OLESTARTUP
290
     0
  0
ENDSEC
  0
SECTION
  2
CLASSES
  0
CLASS
  1
ACDBDICTIONARYWDFLT
  2
AcDbDictionaryWithDefault
  3
ObjectDBX Classes
 90
        0
280
     0
281
     0
  0
CLASS
  1
VISUALSTYLE
  2
AcDbVisualStyle
  3
ObjectDBX Classes
 90
     4095
280
     0
281
     0
  0
CLASS
  1
MATERIAL
  2
AcDbMaterial
  3
ObjectDBX Classes
 90
     1153
280
     0
281
     0
  0
CLASS
  1
SUN
  2
AcDbSun
  3
SCENEOE
 90
     1024
280
     0
281
     0
  0
CLASS
  1
DICTIONARYVAR
  2
AcDbDictionaryVar
  3
ObjectDBX Classes
 90
        0
280
     0
281
     0
  0
CLASS
  1
ACDBPLACEHOLDER
  2
AcDbPlaceHolder
  3
ObjectDBX Classes
 90
        0
280
     0
281
     0
  0
CLASS
  1
LAYOUT
  2
AcDbLayout
  3
ObjectDBX Classes
 90
        0
280
     0
281
     0
  0
ENDSEC
  0
SECTION
  2
TABLES
  0
TABLE
  2
VPORT
  5
8
330
0
100
AcDbSymbolTable
 70
     1
  0
VPORT
  5
29
330
8
100
AcDbSymbolTableRecord
100
AcDbViewportTableRecord
  2
*Active
 70
     0
 10
0.0
 20
0.0
 11
1.0
 21
1.0
 12
0.0
 22
0.0
 13
0.0
 23
0.0
 14
0.5
 24
0.5
 15
0.5
 25
0.5
 16
0.0
 26
0.0
 36
1.0
 17
103.5402777518927
 27
-146.9319444077115
 37
0.0
 40
111.1249999722188
 41
1.33015873015873
 42
50.0
 43
0.0
 44
0.0
 50
0.0
 51
0.0
 71
     0
 72
   100
 73
     1
 74
     3
 75
     0
 76
     0
 77
     0
 78
     0
281
     0
 65
     1
110
0.0
120
0.0
130
0.0
111
1.0
121
0.0
131
0.0
112
0.0
122
1.0
132
0.0
 79
     0
146
0.0
  0
ENDTAB
  0
TABLE
  2
LTYPE
  5
5
330
0
100
AcDbSymbolTable
 70
     1
  0
LTYPE
  5
14
330
5
100
AcDbSymbolTableRecord
100
AcDbLinetypeTableRecord
  2
ByBlock
 70
     0
  3

 72
    65
 73
     0
 40
0.0
  0
LTYPE
  5
15
330
5
100
AcDbSymbolTableRecord
100
AcDbLinetypeTableRecord
  2
ByLayer
 70
     0
  3

 72
    65
 73
     0
 40
0.0
  0
LTYPE
  5
16
330
5
100
AcDbSymbolTableRecord
100
AcDbLinetypeTableRecord
  2
Continuous
 70
     0
  3
Solid line
 72
    65
 73
     0
 40
0.0
  0
ENDTAB
  0
TABLE
  2
LAYER
  5
2
330
0
100
AcDbSymbolTable
 70
     2
  0
LAYER
  5
10
330
2
100
AcDbSymbolTableRecord
100
AcDbLayerTableRecord
  2
0
 70
     0
 62
     7
  6
Continuous
370
    -3
390
F
  0
LAYER
  5
40
330
2
100
AcDbSymbolTableRecord
100
AcDbLayerTableRecord
  2
Capa 1
 70
     0
 62
     7
  6
Continuous
370
    -3
390
F
  0
ENDTAB
  0
TABLE
  2
STYLE
  5
3
330
0
100
AcDbSymbolTable
 70
     1
  0
STYLE
  5
11
330
3
100
AcDbSymbolTableRecord
100
AcDbTextStyleTableRecord
  2
Standard
 70
     0
 40
0.0
 41
1.0
 50
0.0
 71
     0
 42
0.2
  3
txt
  4

  0
ENDTAB
  0
TABLE
  2
VIEW
  5
6
330
0
100
AcDbSymbolTable
 70
     0
  0
ENDTAB
  0
TABLE
  2
UCS
  5
7
330
0
100
AcDbSymbolTable
 70
     0
  0
ENDTAB
  0
TABLE
  2
APPID
  5
9
330
0
100
AcDbSymbolTable
 70
     1
  0
APPID
  5
12
330
9
100
AcDbSymbolTableRecord
100
AcDbRegAppTableRecord
  2
ACAD
 70
     0
  0
ENDTAB
  0
TABLE
  2
DIMSTYLE
  5
A
330
0
100
AcDbSymbolTable
 70
     1
100
AcDbDimStyleTable
  0
DIMSTYLE
105
27
330
A
100
AcDbSymbolTableRecord
100
AcDbDimStyleTableRecord
  2
Standard
 70
     0
178
     0
340
11
  0
ENDTAB
  0
TABLE
  2
BLOCK_RECORD
  5
1
330
0
100
AcDbSymbolTable
 70
    13
  0
BLOCK_RECORD
  5
1F
330
1
100
AcDbSymbolTableRecord
100
AcDbBlockTableRecord
  2
*Model_Space
340
22
  0
BLOCK_RECORD
  5
1B
330
1
100
AcDbSymbolTableRecord
100
AcDbBlockTableRecord
  2
*Paper_Space
340
1E
  0
BLOCK_RECORD
  5
23
330
1
100
AcDbSymbolTableRecord
100
AcDbBlockTableRecord
  2
*Paper_Space0
340
26
  0
BLOCK_RECORD
  5
67
330
1
100
AcDbSymbolTableRecord
100
AcDbBlockTableRecord
  2
block 2
340
0
102
{BLKREFS
331
68
102
}
  0
BLOCK_RECORD
  5
99
330
1
100
AcDbSymbolTableRecord
100
AcDbBlockTableRecord
  2
block 3
340
0
102
{BLKREFS
331
9A
102
}
  0
BLOCK_RECORD
  5
153
330
1
100
AcDbSymbolTableRecord
100
AcDbBlockTableRecord
  2
block 4
340
0
102
{BLKREFS
331
154
102
}
  0
BLOCK_RECORD
  5
1B9
330
1
100
AcDbSymbolTableRecord
100
AcDbBlockTableRecord
  2
block 5
340
0
102
{BLKREFS
331
1BA
102
}
  0
BLOCK_RECORD
  5
1DA
330
1
100
AcDbSymbolTableRecord
100
AcDbBlockTableRecord
  2
block 6
340
0
102
{BLKREFS
331
1DB
102
}
  0
BLOCK_RECORD
  5
1FB
330
1
100
AcDbSymbolTableRecord
100
AcDbBlockTableRecord
  2
block 7
340
0
102
{BLKREFS
331
1FC
102
}
  0
BLOCK_RECORD
  5
21D
330
1
100
AcDbSymbolTableRecord
100
AcDbBlockTableRecord
  2
block 8
340
0
102
{BLKREFS
331
21E
102
}
  0
BLOCK_RECORD
  5
227
330
1
100
AcDbSymbolTableRecord
100
AcDbBlockTableRecord
  2
block 9
340
0
102
{BLKREFS
331
228
102
}
  0
BLOCK_RECORD
  5
22B
330
1
100
AcDbSymbolTableRecord
100
AcDbBlockTableRecord
  2
block 10
340
0
102
{BLKREFS
331
22C
102
}
  0
BLOCK_RECORD
  5
297
330
1
100
AcDbSymbolTableRecord
100
AcDbBlockTableRecord
  2
block 11
340
0
102
{BLKREFS
331
298
102
}
  0
BLOCK_RECORD
  5
2FA
330
1
100
AcDbSymbolTableRecord
100
AcDbBlockTableRecord
  2
block 12
340
0
102
{BLKREFS
331
2FB
102
}
  0
BLOCK_RECORD
  5
302
330
1
100
AcDbSymbolTableRecord
100
AcDbBlockTableRecord
  2
block 13
340
0
102
{BLKREFS
331
303
102
}
  0
ENDTAB
  0
ENDSEC
  0
SECTION
  2
BLOCKS
  0
BLOCK
  5
20
330
1F
100
AcDbEntity
  8
0
100
AcDbBlockBegin
  2
*Model_Space
 70
     0
 10
0.0
 20
0.0
 30
0.0
  3
*Model_Space
  1

  0
ENDBLK
  5
21
330
1F
100
AcDbEntity
  8
0
100
AcDbBlockEnd
  0
BLOCK
  5
1C
330
1B
100
AcDbEntity
 67
     1
  8
0
100
AcDbBlockBegin
  2
*Paper_Space
 70
     0
 10
0.0
 20
0.0
 30
0.0
  3
*Paper_Space
  1

  0
ENDBLK
  5
1D
330
1B
100
AcDbEntity
 67
     1
  8
0
100
AcDbBlockEnd
  0
BLOCK
  5
24
330
23
100
AcDbEntity
  8
0
100
AcDbBlockBegin
  2
*Paper_Space0
 70
     0
 10
0.0
 20
0.0
 30
0.0
  3
*Paper_Space0
  1

  0
ENDBLK
  5
25
330
23
100
AcDbEntity
  8
0
100
AcDbBlockEnd
  0
BLOCK
  5
69
330
67
100
AcDbEntity
  8
0
100
AcDbBlockBegin
  2
block 2
 70
     0
 10
0.0
 20
0.0
 30
0.0
  3
block 2
  1

  0
POLYLINE
  5
6B
330
67
100
AcDbEntity
  8
Capa 1
 62
   250
370
     9
100
AcDb2dPolyline
 66
     1
 10
0.0
 20
0.0
 30
0.0
  0
VERTEX
  5
6C
330
6B
100
AcDbEntity
  8
Capa 1
 62
   250
370
     9
100
AcDbVertex
100
AcDb2dVertex
 10
163.9245869652474
 20
-143.7753560181374
 30
0.0
  0
VERTEX
  5
6D
330
6B
100
AcDbEntity
  8
Capa 1
 62
   250
370
     9
100
AcDbVertex
100
AcDb2dVertex
 10
159.6471650299959
 20
-143.7753560181374
 30
0.0
  0
VERTEX
  5
6E
330
6B
100
AcDbEntity
  8
Capa 1
 62
   250
370
     9
100
AcDbVertex
100
AcDb2dVertex
 10
159.6471650299959
 20
-134.6721401784855
 30
0.0
  0
VERTEX
  5
6F
330
6B
100
AcDbEntity
  8
Capa 1
 62
   250
370
     9
100
AcDbVertex
100
AcDb2dVertex
 10
163.9245869652474
 20
-134.6721401784855
 30
0.0
  0
VERTEX
  5
70
330
6B
100
AcDbEntity
  8
Capa 1
 62
   250
370
     9
100
AcDbVertex
100
AcDb2dVertex
 10
163.9245869652474
 20
-143.7753560181374
 30
0.0
  0
SEQEND
  5
71
330
6B
100
AcDbEntity
  8
Capa 1
 62
   250
370
     9
  0
POLYLINE
  5
72
330
67
100
AcDbEntity
  8
Capa 1
 62
   250
370
     9
100
AcDb2dPolyline
 66
     1
 10
0.0
 20
0.0
 30
0.0
  0
VERTEX
  5
73
330
72
100
AcDbEntity
  8
Capa 1
 62
   250
370
     9
100
AcDbVertex
100
AcDb2dVertex
 10
159.6471650299959
 20
-131.8470814457497
 30
0.0
  0
VERTEX
  5
74
330
72
100
AcDbEntity
  8
Capa 1
 62
   250
370
     9
100
AcDbVertex
100
AcDb2dVertex
 10
161.1685161305921
 20
-131.8470814457497
 30
0.0
  0
VERTEX
  5
75
330
72
100
AcDbEntity
  8
Capa 1
 62
   250
370
     9
100
AcDbVertex
100
AcDb2dVertex
 10
162.8772800480781
 20
-133.5558453632357
 30
0.0
  0
VERTEX
  5
76
330
72
100
AcDbEntity
  8
Capa 1
 62
   250
370
     9
100
AcDbVertex
100
AcDb2dVertex
 10
162.8772800480781
 20
-134.6721401784855
 30
0.0
  0
VERTEX
  5
77
330
72
100
AcDbEntity
  8
Capa 1
 62
   250
370
     9
100
AcDbVertex
100
AcDb2dVertex
 10
159.6471650299959
 20
-134.6721401784855
 30
0.0
  0
VERTEX
  5
78
330
72
100
AcDbEntity
  8
Capa 1
 62
   250
370
     9
100
AcDbVertex
100
AcDb2dVertex
 10
159.6471650299959
 20
-131.8470814457497
 30
0.0
  0
SEQEND
  5
79
330
72
100
AcDbEntity
  8
Capa 1
 62
   250
370
     9
  0
POLYLINE
  5
7A
330
67
100
AcDbEntity
  8
Capa 1
 62
   250
370
     9
100
AcDb2dPolyline
 66
     1
 10
0.0
 20
0.0
 30
0.0
  0
VERTEX
  5
7B
330
7A
100
AcDbEntity
  8
Capa 1
 62
   250
370
     9
100
AcDbVertex
100
AcDb2dVertex
 10
159.6471650299959
 20
-146.6004147508732
 30
0.0
  0
VERTEX
  5
7C
330
7A
100
AcDbEntity
  8
Capa 1
 62
   250
370
     9
100
AcDbVertex
100
AcDb2dVertex
 10
161.1685161305921
 20
-146.6004147508732
 30
0.0
  0
VERTEX
  5
7D
330
7A
100
AcDbEntity
  8
Capa 1
 62
   250
370
     9
100
AcDbVertex
100
AcDb2dVertex
 10
162.8772800480781
 20
-144.8916508333872
 30
0.0
  0
VERTEX
  5
7E
330
7A
100
AcDbEntity
  8
Capa 1
 62
   250
370
     9
100
AcDbVertex
100
AcDb2dVertex
 10
162.8772800480781
 20
-143.7753560181374
 30
0.0
  0
VERTEX
  5
7F
330
7A
100
AcDbEntity
  8
Capa 1
 62
   250
370
     9
100
AcDbVertex
100
AcDb2dVertex
 10
159.6471650299959
 20
-143.7753560181374
 30
0.0
  0
VERTEX
  5
80
330
7A
100
AcDbEntity
  8
Capa 1
 62
   250
370
     9
100
AcDbVertex
100
AcDb2dVertex
 10
159.6471650299959
 20
-146.6004147508732
 30
0.0
  0
SEQEND
  5
81
330
7A
100
AcDbEntity
  8
Capa 1
 62
   250
370
     9
  0
ENDBLK
  5
6A
330
67
100
AcDbEntity
  8
0
100
AcDbBlockEnd
  0
BLOCK
  5
9B
330
99
100
AcDbEntity
  8
0
100
AcDbBlockBegin
  2
block 3
 70
     0
 10
0.0
 20
0.0
 30
0.0
  3
block 3
  1

  0
POLYLINE
  5
9D
330
99
100
AcDbEntity
  8
Capa 1
 62
   250
370
     9
100
AcDb2dPolyline
 66
     1
 10
0.0
 20
0.0
 30
0.0
  0
VERTEX
  5
9E
330
9D
100
AcDbEntity
  8
Capa 1
 62
   250
370
     9
100
AcDbVertex
100
AcDb2dVertex
 10
148.5567359912104
 20
-119.5880783732043
 30
0.0
  0
VERTEX
  5
9F
330
9D
100
AcDbEntity
  8
Capa 1
 62
   250
370
     9
100
AcDbVertex
100
AcDb2dVertex
 10
143.0445943219011
 20
-119.5880783732043
 30
0.0
  0
VERTEX
  5
A0
330
9D
100
AcDbEntity
  8
Capa 1
 62
   250
370
     9
100
AcDbVertex
100
AcDb2dVertex
 10
143.0445943219011
 20
-116.7658618385175
 30
0.0
  0
VERTEX
  5
A1
330
9D
100
AcDbEntity
  8
Capa 1
 62
   250
370
     9
100
AcDbVertex
100
AcDb2dVertex
 10
148.5567359912104
 20
-116.7658618385175
 30
0.0
  0
VERTEX
  5
A2
330
9D
100
AcDbEntity
  8
Capa 1
 62
   250
370
     9
100
AcDbVertex
100
AcDb2dVertex
 10
148.5567359912104
 20
-119.5880783732043
 30
0.0
  0
SEQEND
  5
A3
330
9D
100
AcDbEntity
  8
Capa 1
 62
   250
370
     9
  0
POLYLINE
  5
A4
330
99
100
AcDbEntity
  8
Capa 1
 62
   250
370
     9
100
AcDb2dPolyline
 66
     1
 10
0.0
 20
0.0
 30
0.0
  0
VERTEX
  5
A5
330
A4
100
AcDbEntity
  8
Capa 1
 62
   250
370
     9
100
AcDbVertex
100
AcDb2dVertex
 10
157.4643569288162
 20
-119.5880783732043
 30
0.0
  0
VERTEX
  5
A6
330
A4
100
AcDbEntity
  8
Capa 1
 62
   250
370
     9
100
AcDbVertex
100
AcDb2dVertex
 10
151.9522152595055
 20
-119.5880783732043
 30
0.0
  0
VERTEX
  5
A7
330
A4
100
AcDbEntity
  8
Capa 1
 62
   250
370
     9
100
AcDbVertex
100
AcDb2dVertex
 10
151.9522152595055
 20
-116.7658618385175
 30
0.0
  0
VERTEX
  5
A8
330
A4
100
AcDbEntity
  8
Capa 1
 62
   250
370
     9
100
AcDbVertex
100
AcDb2dVertex
 10
157.4643569288162
 20
-116.7658618385175
 30
0.0
  0
VERTEX
  5
A9
330
A4
100
AcDbEntity
  8
Capa 1
 62
   250
370
     9
100
AcDbVertex
100
AcDb2dVertex
 10
157.4643569288162
 20
-119.5880783732043
 30
0.0
  0
SEQEND
  5
AA
330
A4
100
AcDbEntity
  8
Capa 1
 62
   250
370
     9
  0
ENDBLK
  5
9C
330
99
100
AcDbEntity
  8
0
100
AcDbBlockEnd
  0
BLOCK
  5
155
330
153
100
AcDbEntity
  8
0
100
AcDbBlockBegin
  2
block 4
 70
     0
 10
0.0
 20
0.0
 30
0.0
  3
block 4
  1

  0
POLYLINE
  5
157
330
153
100
AcDbEntity
  8
Capa 1
 62
   250
370
    25
100
AcDb2dPolyline
 66
     1
 10
0.0
 20
0.0
 30
0.0
  0
VERTEX
  5
158
330
157
100
AcDbEntity
  8
Capa 1
 62
   250
370
    25
100
AcDbVertex
100
AcDb2dVertex
 10
159.6692041396987
 20
-102.1256138864155
 30
0.0
  0
VERTEX
  5
159
330
157
100
AcDbEntity
  8
Capa 1
 62
   250
370
    25
100
AcDbVertex
100
AcDb2dVertex
 10
163.8510978900096
 20
-102.1256138864155
 30
0.0
  0
VERTEX
  5
15A
330
157
100
AcDbEntity
  8
Capa 1
 62
   250
370
    25
100
AcDbVertex
100
AcDb2dVertex
 10
163.8510978900096
 20
-104.0217944414971
 30
0.0
  0
VERTEX
  5
15B
330
157
100
AcDbEntity
  8
Capa 1
 62
   250
370
    25
100
AcDbVertex
100
AcDb2dVertex
 10
161.4404569197463
 20
-104.0217944414971
 30
0.0
  0
VERTEX
  5
15C
330
157
100
AcDbEntity
  8
Capa 1
 62
   250
370
    25
100
AcDbVertex
100
AcDb2dVertex
 10
161.4404569197463
 20
-112.8118048491842
 30
0.0
  0
VERTEX
  5
15D
330
157
100
AcDbEntity
  8
Capa 1
 62
   250
370
    25
100
AcDbVertex
100
AcDb2dVertex
 10
162.8221555277994
 20
-112.8118048491842
 30
0.0
  0
VERTEX
  5
15E
330
157
100
AcDbEntity
  8
Capa 1
 62
   250
370
    25
100
AcDbVertex
100
AcDb2dVertex
 10
162.8221555277994
 20
-125.1884180391782
 30
0.0
  0
VERTEX
  5
15F
330
157
100
AcDbEntity
  8
Capa 1
 62
   250
370
    25
100
AcDbVertex
100
AcDb2dVertex
 10
161.2842649031838
 20
-125.1884180391782
 30
0.0
  0
VERTEX
  5
160
330
157
100
AcDbEntity
  8
Capa 1
 62
   250
370
    25
100
AcDbVertex
100
AcDb2dVertex
 10
161.2842649031838
 20
-130.4800631726751
 30
0.0
  0
VERTEX
  5
161
330
157
100
AcDbEntity
  8
Capa 1
 62
   250
370
    25
100
AcDbVertex
100
AcDb2dVertex
 10
159.6692041396987
 20
-130.4506722018169
 30
0.0
  0
VERTEX
  5
162
330
157
100
AcDbEntity
  8
Capa 1
 62
   250
370
    25
100
AcDbVertex
100
AcDb2dVertex
 10
159.6692041396987
 20
-131.8470770612223
 30
0.0
  0
VERTEX
  5
163
330
157
100
AcDbEntity
  8
Capa 1
 62
   250
370
    25
100
AcDbVertex
100
AcDb2dVertex
 10
161.1685096948794
 20
-131.8470770612223
 30
0.0
  0
VERTEX
  5
164
330
157
100
AcDbEntity
  8
Capa 1
 62
   250
370
    25
100
AcDbVertex
100
AcDb2dVertex
 10
162.8772770555634
 20
-133.5558444219062
 30
0.0
  0
VERTEX
  5
165
330
157
100
AcDbEntity
  8
Capa 1
 62
   250
370
    25
100
AcDbVertex
100
AcDb2dVertex
 10
162.8772770555634
 20
-134.6721414865142
 30
0.0
  0
VERTEX
  5
166
330
157
100
AcDbEntity
  8
Capa 1
 62
   250
370
    25
100
AcDbVertex
100
AcDb2dVertex
 10
163.9245860830793
 20
-134.6721414865142
 30
0.0
  0
VERTEX
  5
167
330
157
100
AcDbEntity
  8
Capa 1
 62
   250
370
    25
100
AcDbVertex
100
AcDb2dVertex
 10
163.9245860830793
 20
-143.7753541375048
 30
0.0
  0
VERTEX
  5
168
330
157
100
AcDbEntity
  8
Capa 1
 62
   250
370
    25
100
AcDbVertex
100
AcDb2dVertex
 10
162.8772770555634
 20
-143.7753541375048
 30
0.0
  0
VERTEX
  5
169
330
157
100
AcDbEntity
  8
Capa 1
 62
   250
370
    25
100
AcDbVertex
100
AcDb2dVertex
 10
162.8772770555634
 20
-144.8916512021129
 30
0.0
  0
VERTEX
  5
16A
330
157
100
AcDbEntity
  8
Capa 1
 62
   250
370
    25
100
AcDbVertex
100
AcDb2dVertex
 10
161.1685096948794
 20
-146.6004185627968
 30
0.0
  0
VERTEX
  5
16B
330
157
100
AcDbEntity
  8
Capa 1
 62
   250
370
    25
100
AcDbVertex
100
AcDb2dVertex
 10
159.6692041396987
 20
-146.6004185627968
 30
0.0
  0
VERTEX
  5
16C
330
157
100
AcDbEntity
  8
Capa 1
 62
   250
370
    25
100
AcDbVertex
100
AcDb2dVertex
 10
159.6692041396987
 20
-151.2498117704558
 30
0.0
  0
VERTEX
  5
16D
330
157
100
AcDbEntity
  8
Capa 1
 62
   250
370
    25
100
AcDbVertex
100
AcDb2dVertex
 10
158.8754541398972
 20
-151.2498117704558
 30
0.0
  0
VERTEX
  5
16E
330
157
100
AcDbEntity
  8
Capa 1
 62
   250
370
    25
100
AcDbVertex
100
AcDb2dVertex
 10
158.8754541398972
 20
-152.0876589924685
 30
0.0
  0
VERTEX
  5
16F
330
157
100
AcDbEntity
  8
Capa 1
 62
   250
370
    25
100
AcDbVertex
100
AcDb2dVertex
 10
162.7192548320243
 20
-152.0876589924685
 30
0.0
  0
VERTEX
  5
170
330
157
100
AcDbEntity
  8
Capa 1
 62
   250
370
    25
100
AcDbVertex
100
AcDb2dVertex
 10
162.7192548320243
 20
-162.8032624579429
 30
0.0
  0
VERTEX
  5
171
330
157
100
AcDbEntity
  8
Capa 1
 62
   250
370
    25
100
AcDbVertex
100
AcDb2dVertex
 10
161.4551416392522
 20
-162.8032624579429
 30
0.0
  0
VERTEX
  5
172
330
157
100
AcDbEntity
  8
Capa 1
 62
   250
370
    25
100
AcDbVertex
100
AcDb2dVertex
 10
161.4551416392522
 20
-163.4206235688996
 30
0.0
  0
VERTEX
  5
173
330
157
100
AcDbEntity
  8
Capa 1
 62
   250
370
    25
100
AcDbVertex
100
AcDb2dVertex
 10
163.2190305277001
 20
-163.4206235688996
 30
0.0
  0
VERTEX
  5
174
330
157
100
AcDbEntity
  8
Capa 1
 62
   250
370
    25
100
AcDbVertex
100
AcDb2dVertex
 10
163.2190305277001
 20
-169.6383103688318
 30
0.0
  0
VERTEX
  5
175
330
157
100
AcDbEntity
  8
Capa 1
 62
   250
370
    25
100
AcDbVertex
100
AcDb2dVertex
 10
161.631530528097
 20
-169.6383103688318
 30
0.0
  0
VERTEX
  5
176
330
157
100
AcDbEntity
  8
Capa 1
 62
   250
370
    25
100
AcDbVertex
100
AcDb2dVertex
 10
161.631530528097
 20
-170.5202548130557
 30
0.0
  0
VERTEX
  5
177
330
157
100
AcDbEntity
  8
Capa 1
 62
   250
370
    25
100
AcDbVertex
100
AcDb2dVertex
 10
164.1230235830297
 20
-173.0117478679884
 30
0.0
  0
VERTEX
  5
178
330
157
100
AcDbEntity
  8
Capa 1
 62
   250
370
    25
100
AcDbVertex
100
AcDb2dVertex
 10
172.9644951045281
 20
-173.0117478679884
 30
0.0
  0
VERTEX
  5
179
330
157
100
AcDbEntity
  8
Capa 1
 62
   250
370
    25
100
AcDbVertex
100
AcDb2dVertex
 10
172.9644951045281
 20
-177.5758103668474
 30
0.0
  0
VERTEX
  5
17A
330
157
100
AcDbEntity
  8
Capa 1
 62
   250
370
    25
100
AcDbVertex
100
AcDb2dVertex
 10
162.9985444166442
 20
-177.5758103668474
 30
0.0
  0
VERTEX
  5
17B
330
157
100
AcDbEntity
  8
Capa 1
 62
   250
370
    25
100
AcDbVertex
100
AcDb2dVertex
 10
162.1900881654899
 20
-176.7820603670458
 30
0.0
  0
VERTEX
  5
17C
330
157
100
AcDbEntity
  8
Capa 1
 62
   250
370
    25
100
AcDbVertex
100
AcDb2dVertex
 10
162.1900881654899
 20
-175.9883103672443
 30
0.0
  0
VERTEX
  5
17D
330
157
100
AcDbEntity
  8
Capa 1
 62
   250
370
    25
100
AcDbVertex
100
AcDb2dVertex
 10
162.7192548320243
 20
-175.9883103672443
 30
0.0
  0
VERTEX
  5
17E
330
157
100
AcDbEntity
  8
Capa 1
 62
   250
370
    25
100
AcDbVertex
100
AcDb2dVertex
 10
162.7192548320243
 20
-174.7535881453307
 30
0.0
  0
VERTEX
  5
17F
330
157
100
AcDbEntity
  8
Capa 1
 62
   250
370
    25
100
AcDbVertex
100
AcDb2dVertex
 10
161.300801361513
 20
-174.7535881453307
 30
0.0
  0
VERTEX
  5
180
330
157
100
AcDbEntity
  8
Capa 1
 62
   250
370
    25
100
AcDbVertex
100
AcDb2dVertex
 10
161.300801361513
 20
-179.192701337309
 30
0.0
  0
VERTEX
  5
181
330
157
100
AcDbEntity
  8
Capa 1
 62
   250
370
    25
100
AcDbVertex
100
AcDb2dVertex
 10
163.8290277470572
 20
-179.192701337309
 30
0.0
  0
VERTEX
  5
182
330
157
100
AcDbEntity
  8
Capa 1
 62
   250
370
    25
100
AcDbVertex
100
AcDb2dVertex
 10
163.8290277470572
 20
-180.8683957813346
 30
0.0
  0
VERTEX
  5
183
330
157
100
AcDbEntity
  8
Capa 1
 62
   250
370
    25
100
AcDbVertex
100
AcDb2dVertex
 10
161.300801361513
 20
-180.8683957813346
 30
0.0
  0
VERTEX
  5
184
330
157
100
AcDbEntity
  8
Capa 1
 62
   250
370
    25
100
AcDbVertex
100
AcDb2dVertex
 10
159.6471555285931
 20
-180.8683957813346
 30
0.0
  0
VERTEX
  5
185
330
157
100
AcDbEntity
  8
Capa 1
 62
   250
370
    25
100
AcDbVertex
100
AcDb2dVertex
 10
159.6471555285931
 20
-179.192701337309
 30
0.0
  0
VERTEX
  5
186
330
157
100
AcDbEntity
  8
Capa 1
 62
   250
370
    25
100
AcDbVertex
100
AcDb2dVertex
 10
159.6471555285931
 20
-174.7535881453307
 30
0.0
  0
VERTEX
  5
187
330
157
100
AcDbEntity
  8
Capa 1
 62
   250
370
    25
100
AcDbVertex
100
AcDb2dVertex
 10
140.9720249858444
 20
-174.7535881453307
 30
0.0
  0
VERTEX
  5
188
330
157
100
AcDbEntity
  8
Capa 1
 62
   250
370
    25
100
AcDbVertex
100
AcDb2dVertex
 10
140.9720249858444
 20
-179.192701337309
 30
0.0
  0
VERTEX
  5
189
330
157
100
AcDbEntity
  8
Capa 1
 62
   250
370
    25
100
AcDbVertex
100
AcDb2dVertex
 10
140.9720249858444
 20
-180.8683957813346
 30
0.0
  0
VERTEX
  5
18A
330
157
100
AcDbEntity
  8
Capa 1
 62
   250
370
    25
100
AcDbVertex
100
AcDb2dVertex
 10
139.3183791529245
 20
-180.8683957813346
 30
0.0
  0
VERTEX
  5
18B
330
157
100
AcDbEntity
  8
Capa 1
 62
   250
370
    25
100
AcDbVertex
100
AcDb2dVertex
 10
136.7901527673803
 20
-180.8683957813346
 30
0.0
  0
VERTEX
  5
18C
330
157
100
AcDbEntity
  8
Capa 1
 62
   250
370
    25
100
AcDbVertex
100
AcDb2dVertex
 10
136.7901527673803
 20
-179.192701337309
 30
0.0
  0
VERTEX
  5
18D
330
157
100
AcDbEntity
  8
Capa 1
 62
   250
370
    25
100
AcDbVertex
100
AcDb2dVertex
 10
139.3183791529245
 20
-179.192701337309
 30
0.0
  0
VERTEX
  5
18E
330
157
100
AcDbEntity
  8
Capa 1
 62
   250
370
    25
100
AcDbVertex
100
AcDb2dVertex
 10
139.3183791529245
 20
-174.7535881453307
 30
0.0
  0
VERTEX
  5
18F
330
157
100
AcDbEntity
  8
Capa 1
 62
   250
370
    25
100
AcDbVertex
100
AcDb2dVertex
 10
138.1130694337162
 20
-174.7535881453307
 30
0.0
  0
VERTEX
  5
190
330
157
100
AcDbEntity
  8
Capa 1
 62
   250
370
    25
100
AcDbVertex
100
AcDb2dVertex
 10
138.1130694337162
 20
-176.0177013381028
 30
0.0
  0
VERTEX
  5
191
330
157
100
AcDbEntity
  8
Capa 1
 62
   250
370
    25
100
AcDbVertex
100
AcDb2dVertex
 10
138.4952381822643
 20
-176.0177013381028
 30
0.0
  0
VERTEX
  5
192
330
157
100
AcDbEntity
  8
Capa 1
 62
   250
370
    25
100
AcDbVertex
100
AcDb2dVertex
 10
138.4952381822643
 20
-177.5758103668474
 30
0.0
  0
VERTEX
  5
193
330
157
100
AcDbEntity
  8
Capa 1
 62
   250
370
    25
100
AcDbVertex
100
AcDb2dVertex
 10
127.2651743016083
 20
-177.5758103668474
 30
0.0
  0
VERTEX
  5
194
330
157
100
AcDbEntity
  8
Capa 1
 62
   250
370
    25
100
AcDbVertex
100
AcDb2dVertex
 10
127.2651743016083
 20
-172.9603082860243
 30
0.0
  0
VERTEX
  5
195
330
157
100
AcDbEntity
  8
Capa 1
 62
   250
370
    25
100
AcDbVertex
100
AcDb2dVertex
 10
136.6137638785355
 20
-172.9603082860243
 30
0.0
  0
VERTEX
  5
196
330
157
100
AcDbEntity
  8
Capa 1
 62
   250
370
    25
100
AcDbVertex
100
AcDb2dVertex
 10
139.0832083223626
 20
-170.4982062019501
 30
0.0
  0
VERTEX
  5
197
330
157
100
AcDbEntity
  8
Capa 1
 62
   250
370
    25
100
AcDbVertex
100
AcDb2dVertex
 10
139.0832083223626
 20
-169.5795284271147
 30
0.0
  0
VERTEX
  5
198
330
157
100
AcDbEntity
  8
Capa 1
 62
   250
370
    25
100
AcDbVertex
100
AcDb2dVertex
 10
137.4075138783371
 20
-169.5795284271147
 30
0.0
  0
VERTEX
  5
199
330
157
100
AcDbEntity
  8
Capa 1
 62
   250
370
    25
100
AcDbVertex
100
AcDb2dVertex
 10
137.3781013756317
 20
-163.4206235688996
 30
0.0
  0
VERTEX
  5
19A
330
157
100
AcDbEntity
  8
Capa 1
 62
   250
370
    25
100
AcDbVertex
100
AcDb2dVertex
 10
139.2889881820659
 20
-163.4206235688996
 30
0.0
  0
VERTEX
  5
19B
330
157
100
AcDbEntity
  8
Capa 1
 62
   250
370
    25
100
AcDbVertex
100
AcDb2dVertex
 10
139.2889881820659
 20
-162.8032624579429
 30
0.0
  0
VERTEX
  5
19C
330
157
100
AcDbEntity
  8
Capa 1
 62
   250
370
    25
100
AcDbVertex
100
AcDb2dVertex
 10
137.96607151573
 20
-162.8032624579429
 30
0.0
  0
VERTEX
  5
19D
330
157
100
AcDbEntity
  8
Capa 1
 62
   250
370
    25
100
AcDbVertex
100
AcDb2dVertex
 10
137.96607151573
 20
-152.0876589924685
 30
0.0
  0
VERTEX
  5
19E
330
157
100
AcDbEntity
  8
Capa 1
 62
   250
370
    25
100
AcDbVertex
100
AcDb2dVertex
 10
141.7657749856459
 20
-152.0876589924685
 30
0.0
  0
VERTEX
  5
19F
330
157
100
AcDbEntity
  8
Capa 1
 62
   250
370
    25
100
AcDbVertex
100
AcDb2dVertex
 10
141.7657749856459
 20
-151.2498117704558
 30
0.0
  0
VERTEX
  5
1A0
330
157
100
AcDbEntity
  8
Capa 1
 62
   250
370
    25
100
AcDbVertex
100
AcDb2dVertex
 10
140.9720249858444
 20
-151.2498117704558
 30
0.0
  0
VERTEX
  5
1A1
330
157
100
AcDbEntity
  8
Capa 1
 62
   250
370
    25
100
AcDbVertex
100
AcDb2dVertex
 10
140.9720249858444
 20
-146.6004185627968
 30
0.0
  0
VERTEX
  5
1A2
330
157
100
AcDbEntity
  8
Capa 1
 62
   250
370
    25
100
AcDbVertex
100
AcDb2dVertex
 10
139.450670819558
 20
-146.6004185627968
 30
0.0
  0
VERTEX
  5
1A3
330
157
100
AcDbEntity
  8
Capa 1
 62
   250
370
    25
100
AcDbVertex
100
AcDb2dVertex
 10
137.7419034588741
 20
-144.8916512021129
 30
0.0
  0
VERTEX
  5
1A4
330
157
100
AcDbEntity
  8
Capa 1
 62
   250
370
    25
100
AcDbVertex
100
AcDb2dVertex
 10
137.7419034588741
 20
-143.7753541375048
 30
0.0
  0
VERTEX
  5
1A5
330
157
100
AcDbEntity
  8
Capa 1
 62
   250
370
    25
100
AcDbVertex
100
AcDb2dVertex
 10
136.6945944313582
 20
-143.7753541375048
 30
0.0
  0
VERTEX
  5
1A6
330
157
100
AcDbEntity
  8
Capa 1
 62
   250
370
    25
100
AcDbVertex
100
AcDb2dVertex
 10
136.6945944313582
 20
-134.6721414865142
 30
0.0
  0
VERTEX
  5
1A7
330
157
100
AcDbEntity
  8
Capa 1
 62
   250
370
    25
100
AcDbVertex
100
AcDb2dVertex
 10
137.7419034588741
 20
-134.6721414865142
 30
0.0
  0
VERTEX
  5
1A8
330
157
100
AcDbEntity
  8
Capa 1
 62
   250
370
    25
100
AcDbVertex
100
AcDb2dVertex
 10
137.7419034588741
 20
-133.5558444219062
 30
0.0
  0
VERTEX
  5
1A9
330
157
100
AcDbEntity
  8
Capa 1
 62
   250
370
    25
100
AcDbVertex
100
AcDb2dVertex
 10
139.450670819558
 20
-131.8470770612223
 30
0.0
  0
VERTEX
  5
1AA
330
157
100
AcDbEntity
  8
Capa 1
 62
   250
370
    25
100
AcDbVertex
100
AcDb2dVertex
 10
140.9720249858444
 20
-131.8470770612223
 30
0.0
  0
VERTEX
  5
1AB
330
157
100
AcDbEntity
  8
Capa 1
 62
   250
370
    25
100
AcDbVertex
100
AcDb2dVertex
 10
140.9720249858444
 20
-130.4506722018169
 30
0.0
  0
VERTEX
  5
1AC
330
157
100
AcDbEntity
  8
Capa 1
 62
   250
370
    25
100
AcDbVertex
100
AcDb2dVertex
 10
139.3569642223592
 20
-130.4800631726751
 30
0.0
  0
VERTEX
  5
1AD
330
157
100
AcDbEntity
  8
Capa 1
 62
   250
370
    25
100
AcDbVertex
100
AcDb2dVertex
 10
139.3569642223592
 20
-125.1884180391782
 30
0.0
  0
VERTEX
  5
1AE
330
157
100
AcDbEntity
  8
Capa 1
 62
   250
370
    25
100
AcDbVertex
100
AcDb2dVertex
 10
137.8190735977437
 20
-125.1884180391782
 30
0.0
  0
VERTEX
  5
1AF
330
157
100
AcDbEntity
  8
Capa 1
 62
   250
370
    25
100
AcDbVertex
100
AcDb2dVertex
 10
137.8190735977437
 20
-112.8118048491842
 30
0.0
  0
VERTEX
  5
1B0
330
157
100
AcDbEntity
  8
Capa 1
 62
   250
370
    25
100
AcDbVertex
100
AcDb2dVertex
 10
139.2007937376435
 20
-112.8118048491842
 30
0.0
  0
VERTEX
  5
1B1
330
157
100
AcDbEntity
  8
Capa 1
 62
   250
370
    25
100
AcDbVertex
100
AcDb2dVertex
 10
139.2007937376435
 20
-104.0217944414971
 30
0.0
  0
VERTEX
  5
1B2
330
157
100
AcDbEntity
  8
Capa 1
 62
   250
370
    25
100
AcDbVertex
100
AcDb2dVertex
 10
136.7901527673803
 20
-104.0217944414971
 30
0.0
  0
VERTEX
  5
1B3
330
157
100
AcDbEntity
  8
Capa 1
 62
   250
370
    25
100
AcDbVertex
100
AcDb2dVertex
 10
136.7901527673803
 20
-102.1256138864155
 30
0.0
  0
VERTEX
  5
1B4
330
157
100
AcDbEntity
  8
Capa 1
 62
   250
370
    25
100
AcDbVertex
100
AcDb2dVertex
 10
140.9720249858444
 20
-102.1256138864155
 30
0.0
  0
VERTEX
  5
1B5
330
157
100
AcDbEntity
  8
Capa 1
 62
   250
370
    25
100
AcDbVertex
100
AcDb2dVertex
 10
140.9720249858444
 20
-111.5183029693338
 30
0.0
  0
VERTEX
  5
1B6
330
157
100
AcDbEntity
  8
Capa 1
 62
   250
370
    25
100
AcDbVertex
100
AcDb2dVertex
 10
159.6471650295673
 20
-111.5183029693338
 30
0.0
  0
VERTEX
  5
1B7
330
157
100
AcDbEntity
  8
Capa 1
 62
   250
370
    25
100
AcDbVertex
100
AcDb2dVertex
 10
159.6692041396987
 20
-102.1256138864155
 30
0.0
  0
SEQEND
  5
1B8
330
157
100
AcDbEntity
  8
Capa 1
 62
   250
370
    25
  0
ENDBLK
  5
156
330
153
100
AcDbEntity
  8
0
100
AcDbBlockEnd
  0
BLOCK
  5
1BB
330
1B9
100
AcDbEntity
  8
0
100
AcDbBlockBegin
  2
block 5
 70
     0
 10
0.0
 20
0.0
 30
0.0
  3
block 5
  1

  0
SPLINE
  5
1BD
330
1B9
100
AcDbEntity
  8
Capa 1
 62
   250
370
     9
100
AcDbSpline
210
0.0
220
0.0
230
1.0
 70
     8
 71
     3
 72
    29
 73
    25
 74
     0
 42
0.0000000001
 43
0.0000000001
 12
1.0
 22
0.0
 32
0.0
 13
1.0
 23
0.0
 33
0.0
 40
0.0
 40
0.0
 40
0.0
 40
0.0
 40
1.0
 40
1.0
 40
1.0
 40
2.0
 40
2.0
 40
2.0
 40
3.0
 40
3.0
 40
3.0
 40
4.0
 40
4.0
 40
4.0
 40
5.0
 40
5.0
 40
5.0
 40
6.0
 40
6.0
 40
6.0
 40
7.0
 40
7.0
 40
7.0
 40
8.0
 40
8.0
 40
8.0
 40
8.0
 10
90.98793834888718
 20
-124.8944346806607
 30
0.0
 10
90.98793834888718
 20
-124.8944346806607
 30
0.0
 10
90.98793834888718
 20
-129.9950004231547
 30
0.0
 10
90.98793834888718
 20
-129.9950004231547
 30
0.0
 10
90.98793834888718
 20
-130.3830559786134
 30
0.0
 10
90.67043834896734
 20
-130.7005559785339
 30
0.0
 10
90.28238279350802
 20
-130.7005559785339
 30
0.0
 10
90.28238279350802
 20
-130.7005559785339
 30
0.0
 10
87.94523525298553
 20
-130.7005559785339
 30
0.0
 10
87.94523525298553
 20
-130.7005559785339
 30
0.0
 10
87.94523525298553
 20
-130.7005559785339
 30
0.0
 10
86.3136422133125
 20
-128.5838893123964
 30
0.0
 10
86.3136422133125
 20
-128.5838893123964
 30
0.0
 10
86.3136422133125
 20
-128.5838893123964
 30
0.0
 10
84.50565804759698
 20
-130.7005559785339
 30
0.0
 10
84.50565804759698
 20
-130.7005559785339
 30
0.0
 10
84.50565804759698
 20
-130.7005559785339
 30
0.0
 10
82.34490163311699
 20
-130.7005559785339
 30
0.0
 10
82.34490163311699
 20
-130.7005559785339
 30
0.0
 10
81.95684607765769
 20
-130.7005559785339
 30
0.0
 10
81.63934607773783
 20
-130.3830559786134
 30
0.0
 10
81.63934607773783
 20
-129.9950004231547
 30
0.0
 10
81.63934607773783
 20
-129.9950004231547
 30
0.0
 10
81.63934607773783
 20
-124.8944346806607
 30
0.0
 10
81.63934607773783
 20
-124.8944346806607
 30
0.0
  0
SPLINE
  5
1BE
330
1B9
100
AcDbEntity
  8
Capa 1
 62
   250
370
     9
100
AcDbSpline
210
0.0
220
0.0
230
1.0
 70
     8
 71
     3
 72
    20
 73
    16
 74
     0
 42
0.0000000001
 43
0.0000000001
 12
1.0
 22
0.0
 32
0.0
 13
1.0
 23
0.0
 33
0.0
 40
0.0
 40
0.0
 40
0.0
 40
0.0
 40
1.0
 40
1.0
 40
1.0
 40
2.0
 40
2.0
 40
2.0
 40
3.0
 40
3.0
 40
3.0
 40
4.0
 40
4.0
 40
4.0
 40
5.0
 40
5.0
 40
5.0
 40
5.0
 10
81.63934607773783
 20
-112.5766314509689
 30
0.0
 10
81.63934607773783
 20
-112.5766314509689
 30
0.0
 10
81.63934607773783
 20
-102.698877720146
 30
0.0
 10
81.63934607773783
 20
-102.698877720146
 30
0.0
 10
81.63934607773783
 20
-102.3108221646873
 30
0.0
 10
81.95684607765769
 20
-101.9933221647668
 30
0.0
 10
82.34490163311699
 20
-101.9933221647668
 30
0.0
 10
82.34490163311699
 20
-101.9933221647668
 30
0.0
 10
90.28238279350802
 20
-101.9933221647668
 30
0.0
 10
90.28238279350802
 20
-101.9933221647668
 30
0.0
 10
90.67043834896734
 20
-101.9933221647668
 30
0.0
 10
90.98793834888718
 20
-102.3108221646873
 30
0.0
 10
90.98793834888718
 20
-102.698877720146
 30
0.0
 10
90.98793834888718
 20
-102.698877720146
 30
0.0
 10
90.98793834888718
 20
-112.5766314509689
 30
0.0
 10
90.98793834888718
 20
-112.5766314509689
 30
0.0
  0
POLYLINE
  5
1BF
330
1B9
100
AcDbEntity
  8
Capa 1
 62
   250
370
     9
100
AcDb2dPolyline
 66
     1
 10
0.0
 20
0.0
 30
0.0
  0
VERTEX
  5
1C0
330
1BF
100
AcDbEntity
  8
Capa 1
 62
   250
370
     9
100
AcDbVertex
100
AcDb2dVertex
 10
83.35913356770864
 20
-124.8944346806607
 30
0.0
  0
VERTEX
  5
1C1
330
1BF
100
AcDbEntity
  8
Capa 1
 62
   250
370
     9
100
AcDbVertex
100
AcDb2dVertex
 10
79.21400303238785
 20
-124.8944346806607
 30
0.0
  0
VERTEX
  5
1C2
330
1BF
100
AcDbEntity
  8
Capa 1
 62
   250
370
     9
100
AcDbVertex
100
AcDb2dVertex
 10
79.21400303238785
 20
-112.5766314509689
 30
0.0
  0
VERTEX
  5
1C3
330
1BF
100
AcDbEntity
  8
Capa 1
 62
   250
370
     9
100
AcDbVertex
100
AcDb2dVertex
 10
83.35913356770864
 20
-112.5766314509689
 30
0.0
  0
VERTEX
  5
1C4
330
1BF
100
AcDbEntity
  8
Capa 1
 62
   250
370
     9
100
AcDbVertex
100
AcDb2dVertex
 10
83.35913356770864
 20
-124.8944346806607
 30
0.0
  0
SEQEND
  5
1C5
330
1BF
100
AcDbEntity
  8
Capa 1
 62
   250
370
     9
  0
POLYLINE
  5
1C6
330
1B9
100
AcDbEntity
  8
Capa 1
 62
   250
370
     9
100
AcDb2dPolyline
 66
     1
 10
0.0
 20
0.0
 30
0.0
  0
VERTEX
  5
1C7
330
1C6
100
AcDbEntity
  8
Capa 1
 62
   250
370
     9
100
AcDbVertex
100
AcDb2dVertex
 10
93.41328139423717
 20
-124.8944346806607
 30
0.0
  0
VERTEX
  5
1C8
330
1C6
100
AcDbEntity
  8
Capa 1
 62
   250
370
     9
100
AcDbVertex
100
AcDb2dVertex
 10
89.26815085891637
 20
-124.8944346806607
 30
0.0
  0
VERTEX
  5
1C9
330
1C6
100
AcDbEntity
  8
Capa 1
 62
   250
370
     9
100
AcDbVertex
100
AcDb2dVertex
 10
89.26815085891637
 20
-112.5766314509689
 30
0.0
  0
VERTEX
  5
1CA
330
1C6
100
AcDbEntity
  8
Capa 1
 62
   250
370
     9
100
AcDbVertex
100
AcDb2dVertex
 10
93.41328139423717
 20
-112.5766314509689
 30
0.0
  0
VERTEX
  5
1CB
330
1C6
100
AcDbEntity
  8
Capa 1
 62
   250
370
     9
100
AcDbVertex
100
AcDb2dVertex
 10
93.41328139423717
 20
-124.8944346806607
 30
0.0
  0
SEQEND
  5
1CC
330
1C6
100
AcDbEntity
  8
Capa 1
 62
   250
370
     9
  0
SPLINE
  5
1CD
330
1B9
100
AcDbEntity
  8
Capa 1
 62
   250
370
     9
100
AcDbSpline
210
0.0
220
0.0
230
1.0
 70
    11
 71
     3
 72
    53
 73
    49
 74
     0
 42
0.0000000001
 43
0.0000000001
 12
1.0
 22
0.0
 32
0.0
 13
1.0
 23
0.0
 33
0.0
 40
0.0
 40
0.0
 40
0.0
 40
0.0
 40
1.0
 40
1.0
 40
1.0
 40
2.0
 40
2.0
 40
2.0
 40
3.0
 40
3.0
 40
3.0
 40
4.0
 40
4.0
 40
4.0
 40
5.0
 40
5.0
 40
5.0
 40
6.0
 40
6.0
 40
6.0
 40
7.0
 40
7.0
 40
7.0
 40
8.0
 40
8.0
 40
8.0
 40
9.0
 40
9.0
 40
9.0
 40
10.0
 40
10.0
 40
10.0
 40
11.0
 40
11.0
 40
11.0
 40
12.0
 40
12.0
 40
12.0
 40
13.0
 40
13.0
 40
13.0
 40
14.0
 40
14.0
 40
14.0
 40
15.0
 40
15.0
 40
15.0
 40
16.0
 40
16.0
 40
16.0
 40
16.0
 10
83.35913356770864
 20
-124.8944346806607
 30
0.0
 10
83.35913356770864
 20
-124.8944346806607
 30
0.0
 10
83.35913356770864
 20
-124.894435827185
 30
0.0
 10
83.35913356770864
 20
-124.894435827185
 30
0.0
 10
83.35913356770864
 20
-125.209729668747
 30
0.0
 10
83.61710125625879
 20
-125.4676973572974
 30
0.0
 10
83.93239509782137
 20
-125.4676973572974
 30
0.0
 10
83.93239509782137
 20
-125.4676973572974
 30
0.0
 10
88.69488932880364
 20
-125.4676973572974
 30
0.0
 10
88.69488932880364
 20
-125.4676973572974
 30
0.0
 10
89.01018317036622
 20
-125.4676973572974
 30
0.0
 10
89.26815085891637
 20
-125.209729668747
 30
0.0
 10
89.26815085891637
 20
-124.894435827185
 30
0.0
 10
89.26815085891637
 20
-124.894435827185
 30
0.0
 10
89.268150858249
 20
-124.8944346806867
 30
0.0
 10
89.268150858249
 20
-124.8944346806867
 30
0.0
 10
89.268150858249
 20
-124.8944346806867
 30
0.0
 10
89.26815085891637
 20
-110.0116506878971
 30
0.0
 10
89.26815085891637
 20
-110.0116506878971
 30
0.0
 10
89.2681508589305
 20
-109.6923140710402
 30
0.0
 10
89.00687544515003
 20
-109.4310386572363
 30
0.0
 10
88.6875388282937
 20
-109.4310386572222
 30
0.0
 10
88.6875388282937
 20
-109.4310386572222
 30
0.0
 10
88.6875376670687
 20
-109.4310386572222
 30
0.0
 10
88.6875376670687
 20
-109.4310386572222
 30
0.0
 10
88.36820105021108
 20
-109.4310386572077
 30
0.0
 10
88.10692563640751
 20
-109.6923140709882
 30
0.0
 10
88.1069256363934
 20
-110.0116506878452
 30
0.0
 10
88.1069256363934
 20
-110.0116506878452
 30
0.0
 10
88.10692563575427
 20
-124.247675464302
 30
0.0
 10
88.10692563575427
 20
-124.247675464302
 30
0.0
 10
88.10692563575427
 20
-124.247675464302
 30
0.0
 10
84.52035879023161
 20
-124.247675464328
 30
0.0
 10
84.52035879023161
 20
-124.247675464328
 30
0.0
 10
84.52035879023161
 20
-124.247675464328
 30
0.0
 10
84.52035879023161
 20
-110.0116506878711
 30
0.0
 10
84.52035879023161
 20
-110.0116506878711
 30
0.0
 10
84.52035879023161
 20
-109.6923140710142
 30
0.0
 10
84.2590833764396
 20
-109.4310386572222
 30
0.0
 10
83.93974675958327
 20
-109.4310386572222
 30
0.0
 10
83.93974675958327
 20
-109.4310386572222
 30
0.0
 10
83.93974559835699
 20
-109.4310386572222
 30
0.0
 10
83.93974559835699
 20
-109.4310386572222
 30
0.0
 10
83.62040898150066
 20
-109.4310386572222
 30
0.0
 10
83.35913356770864
 20
-109.6923140710142
 30
0.0
 10
83.35913356770864
 20
-110.0116506878711
 30
0.0
 10
83.35913356770864
 20
-110.0116506878711
 30
0.0
 10
83.35913356770864
 20
-124.8944346806607
 30
0.0
 10
83.35913356770864
 20
-124.8944346806607
 30
0.0
  0
POLYLINE
  5
1CE
330
1B9
100
AcDbEntity
  8
Capa 1
 62
   250
370
     9
100
AcDb2dPolyline
 66
     1
 10
0.0
 20
0.0
 30
0.0
  0
VERTEX
  5
1CF
330
1CE
100
AcDbEntity
  8
Capa 1
 62
   250
370
     9
100
AcDbVertex
100
AcDb2dVertex
 10
83.35913356770864
 20
-111.5477010582374
 30
0.0
  0
VERTEX
  5
1D0
330
1CE
100
AcDbEntity
  8
Capa 1
 62
   250
370
     9
100
AcDbVertex
100
AcDb2dVertex
 10
84.52035879023161
 20
-111.5477010582374
 30
0.0
  0
SEQEND
  5
1D1
330
1CE
100
AcDbEntity
  8
Capa 1
 62
   250
370
     9
  0
POLYLINE
  5
1D2
330
1B9
100
AcDbEntity
  8
Capa 1
 62
   250
370
     9
100
AcDb2dPolyline
 66
     1
 10
0.0
 20
0.0
 30
0.0
  0
VERTEX
  5
1D3
330
1D2
100
AcDbEntity
  8
Capa 1
 62
   250
370
     9
100
AcDbVertex
100
AcDb2dVertex
 10
88.1069256363934
 20
-111.5477010582374
 30
0.0
  0
VERTEX
  5
1D4
330
1D2
100
AcDbEntity
  8
Capa 1
 62
   250
370
     9
100
AcDbVertex
100
AcDb2dVertex
 10
89.26815085891637
 20
-111.5477010582374
 30
0.0
  0
SEQEND
  5
1D5
330
1D2
100
AcDbEntity
  8
Capa 1
 62
   250
370
     9
  0
POLYLINE
  5
1D6
330
1B9
100
AcDbEntity
  8
Capa 1
 62
   250
370
     9
100
AcDb2dPolyline
 66
     1
 10
0.0
 20
0.0
 30
0.0
  0
VERTEX
  5
1D7
330
1D6
100
AcDbEntity
  8
Capa 1
 62
   250
370
     9
100
AcDbVertex
100
AcDb2dVertex
 10
81.63934607773783
 20
-103.8160036767509
 30
0.0
  0
VERTEX
  5
1D8
330
1D6
100
AcDbEntity
  8
Capa 1
 62
   250
370
     9
100
AcDbVertex
100
AcDb2dVertex
 10
90.98793834888718
 20
-103.8160036767509
 30
0.0
  0
SEQEND
  5
1D9
330
1D6
100
AcDbEntity
  8
Capa 1
 62
   250
370
     9
  0
ENDBLK
  5
1BC
330
1B9
100
AcDbEntity
  8
0
100
AcDbBlockEnd
  0
BLOCK
  5
1DC
330
1DA
100
AcDbEntity
  8
0
100
AcDbBlockBegin
  2
block 6
 70
     0
 10
0.0
 20
0.0
 30
0.0
  3
block 6
  1

  0
SPLINE
  5
1DE
330
1DA
100
AcDbEntity
  8
Capa 1
 62
   250
370
     9
100
AcDbSpline
210
0.0
220
0.0
230
1.0
 70
     8
 71
     3
 72
    29
 73
    25
 74
     0
 42
0.0000000001
 43
0.0000000001
 12
1.0
 22
0.0
 32
0.0
 13
1.0
 23
0.0
 33
0.0
 40
0.0
 40
0.0
 40
0.0
 40
0.0
 40
1.0
 40
1.0
 40
1.0
 40
2.0
 40
2.0
 40
2.0
 40
3.0
 40
3.0
 40
3.0
 40
4.0
 40
4.0
 40
4.0
 40
5.0
 40
5.0
 40
5.0
 40
6.0
 40
6.0
 40
6.0
 40
7.0
 40
7.0
 40
7.0
 40
8.0
 40
8.0
 40
8.0
 40
8.0
 10
99.55013048141633
 20
-143.8980442338865
 30
0.0
 10
99.55013048141633
 20
-143.8980442338865
 30
0.0
 10
94.44956473892296
 20
-143.8980442338865
 30
0.0
 10
94.44956473892296
 20
-143.8980442338865
 30
0.0
 10
94.06150918346364
 20
-143.8980442338865
 30
0.0
 10
93.7440091835438
 20
-143.5805442339653
 30
0.0
 10
93.7440091835438
 20
-143.1924886785073
 30
0.0
 10
93.7440091835438
 20
-143.1924886785073
 30
0.0
 10
93.7440091835438
 20
-140.8553411379835
 30
0.0
 10
93.7440091835438
 20
-140.8553411379835
 30
0.0
 10
93.7440091835438
 20
-140.8553411379835
 30
0.0
 10
95.86067584968129
 20
-139.2237480983111
 30
0.0
 10
95.86067584968129
 20
-139.2237480983111
 30
0.0
 10
95.86067584968129
 20
-139.2237480983111
 30
0.0
 10
93.7440091835438
 20
-137.4157639325962
 30
0.0
 10
93.7440091835438
 20
-137.4157639325962
 30
0.0
 10
93.7440091835438
 20
-137.4157639325962
 30
0.0
 10
93.7440091835438
 20
-135.2550075181156
 30
0.0
 10
93.7440091835438
 20
-135.2550075181156
 30
0.0
 10
93.7440091835438
 20
-134.8669519626569
 30
0.0
 10
94.06150918346364
 20
-134.5494519627364
 30
0.0
 10
94.44956473892296
 20
-134.5494519627364
 30
0.0
 10
94.44956473892296
 20
-134.5494519627364
 30
0.0
 10
99.55013048141633
 20
-134.5494519627364
 30
0.0
 10
99.55013048141633
 20
-134.5494519627364
 30
0.0
  0
SPLINE
  5
1DF
330
1DA
100
AcDbEntity
  8
Capa 1
 62
   250
370
     9
100
AcDbSpline
210
0.0
220
0.0
230
1.0
 70
     8
 71
     3
 72
    20
 73
    16
 74
     0
 42
0.0000000001
 43
0.0000000001
 12
1.0
 22
0.0
 32
0.0
 13
1.0
 23
0.0
 33
0.0
 40
0.0
 40
0.0
 40
0.0
 40
0.0
 40
1.0
 40
1.0
 40
1.0
 40
2.0
 40
2.0
 40
2.0
 40
3.0
 40
3.0
 40
3.0
 40
4.0
 40
4.0
 40
4.0
 40
5.0
 40
5.0
 40
5.0
 40
5.0
 10
111.8679337111085
 20
-134.5494519627364
 30
0.0
 10
111.8679337111085
 20
-134.5494519627364
 30
0.0
 10
121.745687441932
 20
-134.5494519627364
 30
0.0
 10
121.745687441932
 20
-134.5494519627364
 30
0.0
 10
122.13374299739
 20
-134.5494519627364
 30
0.0
 10
122.4512429973112
 20
-134.8669519626569
 30
0.0
 10
122.4512429973112
 20
-135.2550075181156
 30
0.0
 10
122.4512429973112
 20
-135.2550075181156
 30
0.0
 10
122.4512429973112
 20
-143.1924886785073
 30
0.0
 10
122.4512429973112
 20
-143.1924886785073
 30
0.0
 10
122.4512429973112
 20
-143.5805442339653
 30
0.0
 10
122.13374299739
 20
-143.8980442338865
 30
0.0
 10
121.745687441932
 20
-143.8980442338865
 30
0.0
 10
121.745687441932
 20
-143.8980442338865
 30
0.0
 10
111.8679337111085
 20
-143.8980442338865
 30
0.0
 10
111.8679337111085
 20
-143.8980442338865
 30
0.0
  0
POLYLINE
  5
1E0
330
1DA
100
AcDbEntity
  8
Capa 1
 62
   250
370
     9
100
AcDb2dPolyline
 66
     1
 10
0.0
 20
0.0
 30
0.0
  0
VERTEX
  5
1E1
330
1E0
100
AcDbEntity
  8
Capa 1
 62
   250
370
     9
100
AcDbVertex
100
AcDb2dVertex
 10
99.55013048141633
 20
-136.2692394527076
 30
0.0
  0
VERTEX
  5
1E2
330
1E0
100
AcDbEntity
  8
Capa 1
 62
   250
370
     9
100
AcDbVertex
100
AcDb2dVertex
 10
99.55013048141633
 20
-132.1241089173858
 30
0.0
  0
VERTEX
  5
1E3
330
1E0
100
AcDbEntity
  8
Capa 1
 62
   250
370
     9
100
AcDbVertex
100
AcDb2dVertex
 10
111.8679337111085
 20
-132.1241089173858
 30
0.0
  0
VERTEX
  5
1E4
330
1E0
100
AcDbEntity
  8
Capa 1
 62
   250
370
     9
100
AcDbVertex
100
AcDb2dVertex
 10
111.8679337111085
 20
-136.2692394527076
 30
0.0
  0
VERTEX
  5
1E5
330
1E0
100
AcDbEntity
  8
Capa 1
 62
   250
370
     9
100
AcDbVertex
100
AcDb2dVertex
 10
99.55013048141633
 20
-136.2692394527076
 30
0.0
  0
SEQEND
  5
1E6
330
1E0
100
AcDbEntity
  8
Capa 1
 62
   250
370
     9
  0
POLYLINE
  5
1E7
330
1DA
100
AcDbEntity
  8
Capa 1
 62
   250
370
     9
100
AcDb2dPolyline
 66
     1
 10
0.0
 20
0.0
 30
0.0
  0
VERTEX
  5
1E8
330
1E7
100
AcDbEntity
  8
Capa 1
 62
   250
370
     9
100
AcDbVertex
100
AcDb2dVertex
 10
99.55013048141633
 20
-146.3233872792364
 30
0.0
  0
VERTEX
  5
1E9
330
1E7
100
AcDbEntity
  8
Capa 1
 62
   250
370
     9
100
AcDbVertex
100
AcDb2dVertex
 10
99.55013048141633
 20
-142.178256743915
 30
0.0
  0
VERTEX
  5
1EA
330
1E7
100
AcDbEntity
  8
Capa 1
 62
   250
370
     9
100
AcDbVertex
100
AcDb2dVertex
 10
111.8679337111085
 20
-142.178256743915
 30
0.0
  0
VERTEX
  5
1EB
330
1E7
100
AcDbEntity
  8
Capa 1
 62
   250
370
     9
100
AcDbVertex
100
AcDb2dVertex
 10
111.8679337111085
 20
-146.3233872792364
 30
0.0
  0
VERTEX
  5
1EC
330
1E7
100
AcDbEntity
  8
Capa 1
 62
   250
370
     9
100
AcDbVertex
100
AcDb2dVertex
 10
99.55013048141633
 20
-146.3233872792364
 30
0.0
  0
SEQEND
  5
1ED
330
1E7
100
AcDbEntity
  8
Capa 1
 62
   250
370
     9
  0
SPLINE
  5
1EE
330
1DA
100
AcDbEntity
  8
Capa 1
 62
   250
370
     9
100
AcDbSpline
210
0.0
220
0.0
230
1.0
 70
    11
 71
     3
 72
    53
 73
    49
 74
     0
 42
0.0000000001
 43
0.0000000001
 12
1.0
 22
0.0
 32
0.0
 13
1.0
 23
0.0
 33
0.0
 40
0.0
 40
0.0
 40
0.0
 40
0.0
 40
1.0
 40
1.0
 40
1.0
 40
2.0
 40
2.0
 40
2.0
 40
3.0
 40
3.0
 40
3.0
 40
4.0
 40
4.0
 40
4.0
 40
5.0
 40
5.0
 40
5.0
 40
6.0
 40
6.0
 40
6.0
 40
7.0
 40
7.0
 40
7.0
 40
8.0
 40
8.0
 40
8.0
 40
9.0
 40
9.0
 40
9.0
 40
10.0
 40
10.0
 40
10.0
 40
11.0
 40
11.0
 40
11.0
 40
12.0
 40
12.0
 40
12.0
 40
13.0
 40
13.0
 40
13.0
 40
14.0
 40
14.0
 40
14.0
 40
15.0
 40
15.0
 40
15.0
 40
16.0
 40
16.0
 40
16.0
 40
16.0
 10
99.55013048141633
 20
-136.2692394527076
 30
0.0
 10
99.55013048141633
 20
-136.2692394527076
 30
0.0
 10
99.55012933489266
 20
-136.2692394527076
 30
0.0
 10
99.55012933489266
 20
-136.2692394527076
 30
0.0
 10
99.23483549333008
 20
-136.2692394527076
 30
0.0
 10
98.97686780477993
 20
-136.5272071412574
 30
0.0
 10
98.97686780477993
 20
-136.8425009828193
 30
0.0
 10
98.97686780477993
 20
-136.8425009828193
 30
0.0
 10
98.97686780477993
 20
-141.6049952138029
 30
0.0
 10
98.97686780477993
 20
-141.6049952138029
 30
0.0
 10
98.97686780477993
 20
-141.9202890553642
 30
0.0
 10
99.23483549333008
 20
-142.178256743915
 30
0.0
 10
99.55012933489266
 20
-142.178256743915
 30
0.0
 10
99.55012933489266
 20
-142.178256743915
 30
0.0
 10
99.55013048139067
 20
-142.178256743247
 30
0.0
 10
99.55013048139067
 20
-142.178256743247
 30
0.0
 10
99.55013048139067
 20
-142.178256743247
 30
0.0
 10
114.4329144741802
 20
-142.178256743915
 30
0.0
 10
114.4329144741802
 20
-142.178256743915
 30
0.0
 10
114.7522510910378
 20
-142.1782567439301
 30
0.0
 10
115.0135265048414
 20
-141.9169813301493
 30
0.0
 10
115.0135265048555
 20
-141.5976447132917
 30
0.0
 10
115.0135265048555
 20
-141.5976447132917
 30
0.0
 10
115.0135265048555
 20
-141.5976435520667
 30
0.0
 10
115.0135265048555
 20
-141.5976435520667
 30
0.0
 10
115.0135265048696
 20
-141.2783069352097
 30
0.0
 10
114.7522510910892
 20
-141.0170315214061
 30
0.0
 10
114.4329144742328
 20
-141.0170315213914
 30
0.0
 10
114.4329144742328
 20
-141.0170315213914
 30
0.0
 10
100.196889697775
 20
-141.0170315207522
 30
0.0
 10
100.196889697775
 20
-141.0170315207522
 30
0.0
 10
100.196889697775
 20
-141.0170315207522
 30
0.0
 10
100.1968896977494
 20
-137.4304646752302
 30
0.0
 10
100.1968896977494
 20
-137.4304646752302
 30
0.0
 10
100.1968896977494
 20
-137.4304646752302
 30
0.0
 10
114.4329144742059
 20
-137.4304646752302
 30
0.0
 10
114.4329144742059
 20
-137.4304646752302
 30
0.0
 10
114.7522510910635
 20
-137.4304646752302
 30
0.0
 10
115.0135265048555
 20
-137.1691892614382
 30
0.0
 10
115.0135265048555
 20
-136.8498526445812
 30
0.0
 10
115.0135265048555
 20
-136.8498526445812
 30
0.0
 10
115.0135265048555
 20
-136.8498514833562
 30
0.0
 10
115.0135265048555
 20
-136.8498514833562
 30
0.0
 10
115.0135265048555
 20
-136.5305148664996
 30
0.0
 10
114.7522510910635
 20
-136.2692394527076
 30
0.0
 10
114.4329144742059
 20
-136.2692394527076
 30
0.0
 10
114.4329144742059
 20
-136.2692394527076
 30
0.0
 10
99.55013048141633
 20
-136.2692394527076
 30
0.0
 10
99.55013048141633
 20
-136.2692394527076
 30
0.0
  0
POLYLINE
  5
1EF
330
1DA
100
AcDbEntity
  8
Capa 1
 62
   250
370
     9
100
AcDb2dPolyline
 66
     1
 10
0.0
 20
0.0
 30
0.0
  0
VERTEX
  5
1F0
330
1EF
100
AcDbEntity
  8
Capa 1
 62
   250
370
     9
100
AcDbVertex
100
AcDb2dVertex
 10
112.89686410384
 20
-136.2692394527076
 30
0.0
  0
VERTEX
  5
1F1
330
1EF
100
AcDbEntity
  8
Capa 1
 62
   250
370
     9
100
AcDbVertex
100
AcDb2dVertex
 10
112.89686410384
 20
-137.4304646752302
 30
0.0
  0
SEQEND
  5
1F2
330
1EF
100
AcDbEntity
  8
Capa 1
 62
   250
370
     9
  0
POLYLINE
  5
1F3
330
1DA
100
AcDbEntity
  8
Capa 1
 62
   250
370
     9
100
AcDb2dPolyline
 66
     1
 10
0.0
 20
0.0
 30
0.0
  0
VERTEX
  5
1F4
330
1F3
100
AcDbEntity
  8
Capa 1
 62
   250
370
     9
100
AcDbVertex
100
AcDb2dVertex
 10
112.89686410384
 20
-141.0170315213914
 30
0.0
  0
VERTEX
  5
1F5
330
1F3
100
AcDbEntity
  8
Capa 1
 62
   250
370
     9
100
AcDbVertex
100
AcDb2dVertex
 10
112.89686410384
 20
-142.178256743915
 30
0.0
  0
SEQEND
  5
1F6
330
1F3
100
AcDbEntity
  8
Capa 1
 62
   250
370
     9
  0
POLYLINE
  5
1F7
330
1DA
100
AcDbEntity
  8
Capa 1
 62
   250
370
     9
100
AcDb2dPolyline
 66
     1
 10
0.0
 20
0.0
 30
0.0
  0
VERTEX
  5
1F8
330
1F7
100
AcDbEntity
  8
Capa 1
 62
   250
370
     9
100
AcDbVertex
100
AcDb2dVertex
 10
120.6285614853264
 20
-134.5494519627364
 30
0.0
  0
VERTEX
  5
1F9
330
1F7
100
AcDbEntity
  8
Capa 1
 62
   250
370
     9
100
AcDbVertex
100
AcDb2dVertex
 10
120.6285614853264
 20
-143.8980442338865
 30
0.0
  0
SEQEND
  5
1FA
330
1F7
100
AcDbEntity
  8
Capa 1
 62
   250
370
     9
  0
ENDBLK
  5
1DD
330
1DA
100
AcDbEntity
  8
0
100
AcDbBlockEnd
  0
BLOCK
  5
1FD
330
1FB
100
AcDbEntity
  8
0
100
AcDbBlockBegin
  2
block 7
 70
     0
 10
0.0
 20
0.0
 30
0.0
  3
block 7
  1

  0
SPLINE
  5
1FF
330
1FB
100
AcDbEntity
  8
Capa 1
 62
   250
370
     9
100
AcDbSpline
210
0.0
220
0.0
230
1.0
 70
     8
 71
     3
 72
    29
 73
    25
 74
     0
 42
0.0000000001
 43
0.0000000001
 12
1.0
 22
0.0
 32
0.0
 13
1.0
 23
0.0
 33
0.0
 40
0.0
 40
0.0
 40
0.0
 40
0.0
 40
1.0
 40
1.0
 40
1.0
 40
2.0
 40
2.0
 40
2.0
 40
3.0
 40
3.0
 40
3.0
 40
4.0
 40
4.0
 40
4.0
 40
5.0
 40
5.0
 40
5.0
 40
6.0
 40
6.0
 40
6.0
 40
7.0
 40
7.0
 40
7.0
 40
8.0
 40
8.0
 40
8.0
 40
8.0
 10
73.64800817606528
 20
-143.8980442342702
 30
0.0
 10
73.64800817606528
 20
-143.8980442342702
 30
0.0
 10
78.74857391855865
 20
-143.8980442344993
 30
0.0
 10
78.74857391855865
 20
-143.8980442344993
 30
0.0
 10
79.13662947401795
 20
-143.8980442345166
 30
0.0
 10
79.45412947395192
 20
-143.5805442346099
 30
0.0
 10
79.4541294739699
 20
-143.1924886791525
 30
0.0
 10
79.4541294739699
 20
-143.1924886791525
 30
0.0
 10
79.45412947407513
 20
-140.8553411386281
 30
0.0
 10
79.45412947407513
 20
-140.8553411386281
 30
0.0
 10
79.45412947407513
 20
-140.8553411386281
 30
0.0
 10
77.33746280801078
 20
-139.2237480988607
 30
0.0
 10
77.33746280801078
 20
-139.2237480988607
 30
0.0
 10
77.33746280801078
 20
-139.2237480988607
 30
0.0
 10
79.45412947422913
 20
-137.4157639332408
 30
0.0
 10
79.45412947422913
 20
-137.4157639332408
 30
0.0
 10
79.45412947422913
 20
-137.4157639332408
 30
0.0
 10
79.45412947432668
 20
-135.2550075187602
 30
0.0
 10
79.45412947432668
 20
-135.2550075187602
 30
0.0
 10
79.45412947434336
 20
-134.8669519633015
 30
0.0
 10
79.13662947443763
 20
-134.5494519633666
 30
0.0
 10
78.74857391897831
 20
-134.5494519633493
 30
0.0
 10
78.74857391897831
 20
-134.5494519633493
 30
0.0
 10
73.64800817648494
 20
-134.5494519631202
 30
0.0
 10
73.64800817648494
 20
-134.5494519631202
 30
0.0
  0
SPLINE
  5
200
330
1FB
100
AcDbEntity
  8
Capa 1
 62
   250
370
     9
100
AcDbSpline
210
0.0
220
0.0
230
1.0
 70
     8
 71
     3
 72
    20
 73
    16
 74
     0
 42
0.0000000001
 43
0.0000000001
 12
1.0
 22
0.0
 32
0.0
 13
1.0
 23
0.0
 33
0.0
 40
0.0
 40
0.0
 40
0.0
 40
0.0
 40
1.0
 40
1.0
 40
1.0
 40
2.0
 40
2.0
 40
2.0
 40
3.0
 40
3.0
 40
3.0
 40
4.0
 40
4.0
 40
4.0
 40
5.0
 40
5.0
 40
5.0
 40
5.0
 10
61.33020494679151
 20
-134.5494519625674
 30
0.0
 10
61.33020494679151
 20
-134.5494519625674
 30
0.0
 10
51.45245121596928
 20
-134.5494519621239
 30
0.0
 10
51.45245121596928
 20
-134.5494519621239
 30
0.0
 10
51.06439566050997
 20
-134.5494519621063
 30
0.0
 10
50.746895660576
 20
-134.8669519620127
 30
0.0
 10
50.74689566055803
 20
-135.2550075174713
 30
0.0
 10
50.74689566055803
 20
-135.2550075174713
 30
0.0
 10
50.74689566020253
 20
-143.192488677863
 30
0.0
 10
50.74689566020253
 20
-143.192488677863
 30
0.0
 10
50.74689566018456
 20
-143.580544233321
 30
0.0
 10
51.06439566009062
 20
-143.8980442332563
 30
0.0
 10
51.45245121554961
 20
-143.8980442332739
 30
0.0
 10
51.45245121554961
 20
-143.8980442332739
 30
0.0
 10
61.33020494637184
 20
-143.8980442337173
 30
0.0
 10
61.33020494637184
 20
-143.8980442337173
 30
0.0
  0
POLYLINE
  5
201
330
1FB
100
AcDbEntity
  8
Capa 1
 62
   250
370
     9
100
AcDb2dPolyline
 66
     1
 10
0.0
 20
0.0
 30
0.0
  0
VERTEX
  5
202
330
201
100
AcDbEntity
  8
Capa 1
 62
   250
370
     9
100
AcDbVertex
100
AcDb2dVertex
 10
73.64800817640794
 20
-136.269239453091
 30
0.0
  0
VERTEX
  5
203
330
201
100
AcDbEntity
  8
Capa 1
 62
   250
370
     9
100
AcDbVertex
100
AcDb2dVertex
 10
73.64800817659403
 20
-132.1241089177695
 30
0.0
  0
VERTEX
  5
204
330
201
100
AcDbEntity
  8
Capa 1
 62
   250
370
     9
100
AcDbVertex
100
AcDb2dVertex
 10
61.33020494690059
 20
-132.1241089172171
 30
0.0
  0
VERTEX
  5
205
330
201
100
AcDbEntity
  8
Capa 1
 62
   250
370
     9
100
AcDbVertex
100
AcDb2dVertex
 10
61.3302049467145
 20
-136.2692394525382
 30
0.0
  0
VERTEX
  5
206
330
201
100
AcDbEntity
  8
Capa 1
 62
   250
370
     9
100
AcDbVertex
100
AcDb2dVertex
 10
73.64800817640794
 20
-136.269239453091
 30
0.0
  0
SEQEND
  5
207
330
201
100
AcDbEntity
  8
Capa 1
 62
   250
370
     9
  0
POLYLINE
  5
208
330
1FB
100
AcDbEntity
  8
Capa 1
 62
   250
370
     9
100
AcDb2dPolyline
 66
     1
 10
0.0
 20
0.0
 30
0.0
  0
VERTEX
  5
209
330
208
100
AcDbEntity
  8
Capa 1
 62
   250
370
     9
100
AcDbVertex
100
AcDb2dVertex
 10
73.64800817595618
 20
-146.3233872796202
 30
0.0
  0
VERTEX
  5
20A
330
208
100
AcDbEntity
  8
Capa 1
 62
   250
370
     9
100
AcDbVertex
100
AcDb2dVertex
 10
73.64800817614227
 20
-142.1782567442987
 30
0.0
  0
VERTEX
  5
20B
330
208
100
AcDbEntity
  8
Capa 1
 62
   250
370
     9
100
AcDbVertex
100
AcDb2dVertex
 10
61.33020494644884
 20
-142.1782567437459
 30
0.0
  0
VERTEX
  5
20C
330
208
100
AcDbEntity
  8
Capa 1
 62
   250
370
     9
100
AcDbVertex
100
AcDb2dVertex
 10
61.33020494626275
 20
-146.3233872790673
 30
0.0
  0
VERTEX
  5
20D
330
208
100
AcDbEntity
  8
Capa 1
 62
   250
370
     9
100
AcDbVertex
100
AcDb2dVertex
 10
73.64800817595618
 20
-146.3233872796202
 30
0.0
  0
SEQEND
  5
20E
330
208
100
AcDbEntity
  8
Capa 1
 62
   250
370
     9
  0
SPLINE
  5
20F
330
1FB
100
AcDbEntity
  8
Capa 1
 62
   250
370
     9
100
AcDbSpline
210
0.0
220
0.0
230
1.0
 70
    11
 71
     3
 72
    53
 73
    49
 74
     0
 42
0.0000000001
 43
0.0000000001
 12
1.0
 22
0.0
 32
0.0
 13
1.0
 23
0.0
 33
0.0
 40
0.0
 40
0.0
 40
0.0
 40
0.0
 40
1.0
 40
1.0
 40
1.0
 40
2.0
 40
2.0
 40
2.0
 40
3.0
 40
3.0
 40
3.0
 40
4.0
 40
4.0
 40
4.0
 40
5.0
 40
5.0
 40
5.0
 40
6.0
 40
6.0
 40
6.0
 40
7.0
 40
7.0
 40
7.0
 40
8.0
 40
8.0
 40
8.0
 40
9.0
 40
9.0
 40
9.0
 40
10.0
 40
10.0
 40
10.0
 40
11.0
 40
11.0
 40
11.0
 40
12.0
 40
12.0
 40
12.0
 40
13.0
 40
13.0
 40
13.0
 40
14.0
 40
14.0
 40
14.0
 40
15.0
 40
15.0
 40
15.0
 40
16.0
 40
16.0
 40
16.0
 40
16.0
 10
73.64800817640794
 20
-136.269239453091
 30
0.0
 10
73.64800817640794
 20
-136.269239453091
 30
0.0
 10
73.64800932293129
 20
-136.269239453091
 30
0.0
 10
73.64800932293129
 20
-136.269239453091
 30
0.0
 10
73.96330316449452
 20
-136.2692394531054
 30
0.0
 10
74.22127085303279
 20
-136.5272071416674
 30
0.0
 10
74.22127085301868
 20
-136.8425009832291
 30
0.0
 10
74.22127085301868
 20
-136.8425009832291
 30
0.0
 10
74.22127085280435
 20
-141.6049952142126
 30
0.0
 10
74.22127085280435
 20
-141.6049952142126
 30
0.0
 10
74.22127085279023
 20
-141.9202890557739
 30
0.0
 10
73.96330316422853
 20
-142.1782567443132
 30
0.0
 10
73.64800932266594
 20
-142.1782567442987
 30
0.0
 10
73.64800932266594
 20
-142.1782567442987
 30
0.0
 10
73.64800817616795
 20
-142.1782567436307
 30
0.0
 10
73.64800817616795
 20
-142.1782567436307
 30
0.0
 10
73.64800817616795
 20
-142.1782567436307
 30
0.0
 10
58.7652241833771
 20
-142.1782567436307
 30
0.0
 10
58.7652241833771
 20
-142.1782567436307
 30
0.0
 10
58.44588756652077
 20
-142.178256743631
 30
0.0
 10
58.18461215272876
 20
-141.916981329839
 30
0.0
 10
58.18461215272876
 20
-141.5976447129814
 30
0.0
 10
58.18461215272876
 20
-141.5976447129814
 30
0.0
 10
58.18461215272876
 20
-141.5976435517561
 30
0.0
 10
58.18461215272876
 20
-141.5976435517561
 30
0.0
 10
58.18461215272876
 20
-141.2783069348994
 30
0.0
 10
58.44588756652077
 20
-141.0170315211074
 30
0.0
 10
58.76522418337839
 20
-141.0170315211074
 30
0.0
 10
58.76522418337839
 20
-141.0170315211074
 30
0.0
 10
73.00124895983491
 20
-141.0170315211074
 30
0.0
 10
73.00124895983491
 20
-141.0170315211074
 30
0.0
 10
73.00124895983491
 20
-141.0170315211074
 30
0.0
 10
73.00124896002228
 20
-137.4304646755851
 30
0.0
 10
73.00124896002228
 20
-137.4304646755851
 30
0.0
 10
73.00124896002228
 20
-137.4304646755851
 30
0.0
 10
58.76522418356576
 20
-137.430464674946
 30
0.0
 10
58.76522418356576
 20
-137.430464674946
 30
0.0
 10
58.44588756670814
 20
-137.4304646749315
 30
0.0
 10
58.18461215292768
 20
-137.1691892611279
 30
0.0
 10
58.1846121529418
 20
-136.8498526442713
 30
0.0
 10
58.1846121529418
 20
-136.8498526442713
 30
0.0
 10
58.1846121529418
 20
-136.849851483046
 30
0.0
 10
58.1846121529418
 20
-136.849851483046
 30
0.0
 10
58.1846121529572
 20
-136.530514866189
 30
0.0
 10
58.44588756676077
 20
-136.2692394524085
 30
0.0
 10
58.7652241836171
 20
-136.269239452423
 30
0.0
 10
58.7652241836171
 20
-136.269239452423
 30
0.0
 10
73.64800817640794
 20
-136.269239453091
 30
0.0
 10
73.64800817640794
 20
-136.269239453091
 30
0.0
  0
POLYLINE
  5
210
330
1FB
100
AcDbEntity
  8
Capa 1
 62
   250
370
     9
100
AcDb2dPolyline
 66
     1
 10
0.0
 20
0.0
 30
0.0
  0
VERTEX
  5
211
330
210
100
AcDbEntity
  8
Capa 1
 62
   250
370
     9
100
AcDbVertex
100
AcDb2dVertex
 10
60.301274553983
 20
-136.269239452492
 30
0.0
  0
VERTEX
  5
212
330
210
100
AcDbEntity
  8
Capa 1
 62
   250
370
     9
100
AcDbVertex
100
AcDb2dVertex
 10
60.30127455393166
 20
-137.4304646750149
 30
0.0
  0
SEQEND
  5
213
330
210
100
AcDbEntity
  8
Capa 1
 62
   250
370
     9
  0
POLYLINE
  5
214
330
1FB
100
AcDbEntity
  8
Capa 1
 62
   250
370
     9
100
AcDb2dPolyline
 66
     1
 10
0.0
 20
0.0
 30
0.0
  0
VERTEX
  5
215
330
214
100
AcDbEntity
  8
Capa 1
 62
   250
370
     9
100
AcDbVertex
100
AcDb2dVertex
 10
60.30127455376996
 20
-141.0170315211761
 30
0.0
  0
VERTEX
  5
216
330
214
100
AcDbEntity
  8
Capa 1
 62
   250
370
     9
100
AcDbVertex
100
AcDb2dVertex
 10
60.30127455371733
 20
-142.1782567436997
 30
0.0
  0
SEQEND
  5
217
330
214
100
AcDbEntity
  8
Capa 1
 62
   250
370
     9
  0
POLYLINE
  5
218
330
1FB
100
AcDbEntity
  8
Capa 1
 62
   250
370
     9
100
AcDb2dPolyline
 66
     1
 10
0.0
 20
0.0
 30
0.0
  0
VERTEX
  5
219
330
218
100
AcDbEntity
  8
Capa 1
 62
   250
370
     9
100
AcDbVertex
100
AcDb2dVertex
 10
52.56957717257357
 20
-134.549451962174
 30
0.0
  0
VERTEX
  5
21A
330
218
100
AcDbEntity
  8
Capa 1
 62
   250
370
     9
100
AcDbVertex
100
AcDb2dVertex
 10
52.5695771721539
 20
-143.898044233324
 30
0.0
  0
SEQEND
  5
21B
330
218
100
AcDbEntity
  8
Capa 1
 62
   250
370
     9
  0
ENDBLK
  5
1FE
330
1FB
100
AcDbEntity
  8
0
100
AcDbBlockEnd
  0
BLOCK
  5
21F
330
21D
100
AcDbEntity
  8
0
100
AcDbBlockBegin
  2
block 8
 70
     0
 10
0.0
 20
0.0
 30
0.0
  3
block 8
  1

  0
SPLINE
  5
221
330
21D
100
AcDbEntity
  8
Capa 1
 62
   250
370
     9
100
AcDbSpline
210
0.0
220
0.0
230
1.0
 70
    11
 71
     3
 72
    23
 73
    19
 74
     0
 42
0.0000000001
 43
0.0000000001
 12
1.0
 22
0.0
 32
0.0
 13
1.0
 23
0.0
 33
0.0
 40
0.0
 40
0.0
 40
0.0
 40
0.0
 40
1.0
 40
1.0
 40
1.0
 40
2.0
 40
2.0
 40
2.0
 40
3.0
 40
3.0
 40
3.0
 40
4.0
 40
4.0
 40
4.0
 40
5.0
 40
5.0
 40
5.0
 40
6.0
 40
6.0
 40
6.0
 40
6.0
 10
113.4774763596746
 20
-118.2798634170215
 30
0.0
 10
113.4774763596746
 20
-118.2798634170215
 30
0.0
 10
113.4774763596746
 20
-111.9592743028787
 30
0.0
 10
113.4774763596746
 20
-111.9592743028787
 30
0.0
 10
113.4774763596746
 20
-111.9592743028787
 30
0.0
 10
113.4480782707708
 20
-111.0626325913373
 30
0.0
 10
112.5808346481323
 20
-111.0626325913373
 30
0.0
 10
112.5808346481323
 20
-111.0626325913373
 30
0.0
 10
104.5110592442641
 20
-111.0626325913373
 30
0.0
 10
104.5110592442641
 20
-111.0626325913373
 30
0.0
 10
104.5110592442641
 20
-111.0626325913373
 30
0.0
 10
102.7177758211803
 20
-111.0510456398941
 30
0.0
 10
102.7177758211803
 20
-112.1797599696515
 30
0.0
 10
102.7177758211803
 20
-112.1797599696515
 30
0.0
 10
103.164958133703
 20
-112.5962581658936
 30
0.0
 10
103.164958133703
 20
-112.5962581658936
 30
0.0
 10
103.164958133703
 20
-112.5962581658936
 30
0.0
 10
113.4774763596746
 20
-118.2798634170215
 30
0.0
 10
113.4774763596746
 20
-118.2798634170215
 30
0.0
  0
POLYLINE
  5
222
330
21D
100
AcDbEntity
  8
Capa 1
 62
   250
370
     9
100
AcDb2dPolyline
 66
     1
 10
0.0
 20
0.0
 30
0.0
  0
VERTEX
  5
223
330
222
100
AcDbEntity
  8
Capa 1
 62
   250
370
     9
100
AcDbVertex
100
AcDb2dVertex
 10
104.5110592442641
 20
-111.0626325913373
 30
0.0
  0
VERTEX
  5
224
330
222
100
AcDbEntity
  8
Capa 1
 62
   250
370
     9
100
AcDbVertex
100
AcDb2dVertex
 10
104.5110592442641
 20
-113.3997806591256
 30
0.0
  0
SEQEND
  5
225
330
222
100
AcDbEntity
  8
Capa 1
 62
   250
370
     9
  0
ENDBLK
  5
220
330
21D
100
AcDbEntity
  8
0
100
AcDbBlockEnd
  0
BLOCK
  5
229
330
227
100
AcDbEntity
  8
0
100
AcDbBlockBegin
  2
block 9
 70
     0
 10
0.0
 20
0.0
 30
0.0
  3
block 9
  1

  0
INSERT
  5
22C
330
227
100
AcDbEntity
  8
Capa 1
100
AcDbBlockReference
  2
block 10
 10
0.0
 20
0.0
 30
0.0
  0
POLYLINE
  5
234
330
227
100
AcDbEntity
  8
Capa 1
 62
   250
370
     9
100
AcDb2dPolyline
 66
     1
 10
0.0
 20
0.0
 30
0.0
  0
VERTEX
  5
235
330
234
100
AcDbEntity
  8
Capa 1
 62
   250
370
     9
100
AcDbVertex
100
AcDb2dVertex
 10
59.14980806677712
 20
-115.3988507045287
 30
0.0
  0
VERTEX
  5
236
330
234
100
AcDbEntity
  8
Capa 1
 62
   250
370
     9
100
AcDbVertex
100
AcDb2dVertex
 10
62.50119020189292
 20
-115.3988507045287
 30
0.0
  0
VERTEX
  5
237
330
234
100
AcDbEntity
  8
Capa 1
 62
   250
370
     9
100
AcDbVertex
100
AcDb2dVertex
 10
62.50119020189292
 20
-111.0626325909828
 30
0.0
  0
SEQEND
  5
238
330
234
100
AcDbEntity
  8
Capa 1
 62
   250
370
     9
  0
POLYLINE
  5
239
330
227
100
AcDbEntity
  8
Capa 1
 62
   250
370
     9
100
AcDb2dPolyline
 66
     1
 10
0.0
 20
0.0
 30
0.0
  0
VERTEX
  5
23A
330
239
100
AcDbEntity
  8
Capa 1
 62
   250
370
     9
100
AcDbVertex
100
AcDb2dVertex
 10
61.23707237906462
 20
-111.0626325909828
 30
0.0
  0
VERTEX
  5
23B
330
239
100
AcDbEntity
  8
Capa 1
 62
   250
370
     9
100
AcDbVertex
100
AcDb2dVertex
 10
61.23707237906462
 20
-115.3988507045287
 30
0.0
  0
SEQEND
  5
23C
330
239
100
AcDbEntity
  8
Capa 1
 62
   250
370
     9
  0
ENDBLK
  5
22A
330
227
100
AcDbEntity
  8
0
100
AcDbBlockEnd
  0
BLOCK
  5
22D
330
22B
100
AcDbEntity
  8
0
100
AcDbBlockBegin
  2
block 10
 70
     0
 10
0.0
 20
0.0
 30
0.0
  3
block 10
  1

  0
SPLINE
  5
22F
330
22B
100
AcDbEntity
  8
Capa 1
 62
   250
370
     9
100
AcDbSpline
210
0.0
220
0.0
230
1.0
 70
    11
 71
     3
 72
    23
 73
    19
 74
     0
 42
0.0000000001
 43
0.0000000001
 12
1.0
 22
0.0
 32
0.0
 13
1.0
 23
0.0
 33
0.0
 40
0.0
 40
0.0
 40
0.0
 40
0.0
 40
1.0
 40
1.0
 40
1.0
 40
2.0
 40
2.0
 40
2.0
 40
3.0
 40
3.0
 40
3.0
 40
4.0
 40
4.0
 40
4.0
 40
5.0
 40
5.0
 40
5.0
 40
6.0
 40
6.0
 40
6.0
 40
6.0
 10
59.14980806664877
 20
-118.2798634165168
 30
0.0
 10
59.14980806664877
 20
-118.2798634165168
 30
0.0
 10
59.14980806693241
 20
-111.959274302374
 30
0.0
 10
59.14980806693241
 20
-111.959274302374
 30
0.0
 10
59.14980806693241
 20
-111.959274302374
 30
0.0
 10
59.17920615587605
 20
-111.0626325908339
 30
0.0
 10
60.04644977851488
 20
-111.0626325908727
 30
0.0
 10
60.04644977851488
 20
-111.0626325908727
 30
0.0
 10
68.11622518238306
 20
-111.062632591235
 30
0.0
 10
68.11622518238306
 20
-111.062632591235
 30
0.0
 10
68.11622518238306
 20
-111.062632591235
 30
0.0
 10
69.90950860546653
 20
-111.0510456398723
 30
0.0
 10
69.90950860541648
 20
-112.1797599696297
 30
0.0
 10
69.90950860541648
 20
-112.1797599696297
 30
0.0
 10
69.46232629287448
 20
-112.5962581658519
 30
0.0
 10
69.46232629287448
 20
-112.5962581658519
 30
0.0
 10
69.46232629287448
 20
-112.5962581658519
 30
0.0
 10
59.14980806664877
 20
-118.2798634165168
 30
0.0
 10
59.14980806664877
 20
-118.2798634165168
 30
0.0
  0
POLYLINE
  5
230
330
22B
100
AcDbEntity
  8
Capa 1
 62
   250
370
     9
100
AcDb2dPolyline
 66
     1
 10
0.0
 20
0.0
 30
0.0
  0
VERTEX
  5
231
330
230
100
AcDbEntity
  8
Capa 1
 62
   250
370
     9
100
AcDbVertex
100
AcDb2dVertex
 10
68.11622518238306
 20
-111.062632591235
 30
0.0
  0
VERTEX
  5
232
330
230
100
AcDbEntity
  8
Capa 1
 62
   250
370
     9
100
AcDbVertex
100
AcDb2dVertex
 10
68.11622518227911
 20
-113.3997806590233
 30
0.0
  0
SEQEND
  5
233
330
230
100
AcDbEntity
  8
Capa 1
 62
   250
370
     9
  0
ENDBLK
  5
22E
330
22B
100
AcDbEntity
  8
0
100
AcDbBlockEnd
  0
BLOCK
  5
299
330
297
100
AcDbEntity
  8
0
100
AcDbBlockBegin
  2
block 11
 70
     0
 10
0.0
 20
0.0
 30
0.0
  3
block 11
  1

  0
SPLINE
  5
29B
330
297
100
AcDbEntity
  8
Capa 1
 62
   250
370
     9
100
AcDbSpline
210
0.0
220
0.0
230
1.0
 70
     8
 71
     3
 72
    35
 73
    31
 74
     0
 42
0.0000000001
 43
0.0000000001
 12
1.0
 22
0.0
 32
0.0
 13
1.0
 23
0.0
 33
0.0
 40
0.0
 40
0.0
 40
0.0
 40
0.0
 40
1.0
 40
1.0
 40
1.0
 40
2.0
 40
2.0
 40
2.0
 40
3.0
 40
3.0
 40
3.0
 40
4.0
 40
4.0
 40
4.0
 40
5.0
 40
5.0
 40
5.0
 40
6.0
 40
6.0
 40
6.0
 40
7.0
 40
7.0
 40
7.0
 40
8.0
 40
8.0
 40
8.0
 40
9.0
 40
9.0
 40
9.0
 40
10.0
 40
10.0
 40
10.0
 40
10.0
 10
83.35913356799227
 20
-162.7003757498561
 30
0.0
 10
83.35913356799227
 20
-162.7003757498561
 30
0.0
 10
82.34490163273198
 20
-162.7003757498561
 30
0.0
 10
82.34490163273198
 20
-162.7003757498561
 30
0.0
 10
82.34490163273198
 20
-162.7003757498561
 30
0.0
 10
82.34490163250352
 20
-152.7932212112236
 30
0.0
 10
82.34490163250352
 20
-152.7932212112236
 30
0.0
 10
82.34490163248556
 20
-152.4051656557656
 30
0.0
 10
82.66240163239259
 20
-152.0876656558303
 30
0.0
 10
83.05045718785061
 20
-152.087665655813
 30
0.0
 10
83.05045718785061
 20
-152.087665655813
 30
0.0
 10
84.68204917299522
 20
-152.0876656557084
 30
0.0
 10
84.68204917299522
 20
-152.0876656557084
 30
0.0
 10
84.68204917299522
 20
-152.0876656557084
 30
0.0
 10
86.31364221276193
 20
-154.2043323217721
 30
0.0
 10
86.31364221276193
 20
-154.2043323217721
 30
0.0
 10
86.31364221276193
 20
-154.2043323217721
 30
0.0
 10
88.12162637838249
 20
-152.0876656555531
 30
0.0
 10
88.12162637838249
 20
-152.0876656555531
 30
0.0
 10
88.12162637838249
 20
-152.0876656555531
 30
0.0
 10
89.5768272374849
 20
-152.0876656554568
 30
0.0
 10
89.5768272374849
 20
-152.0876656554568
 30
0.0
 10
89.96488279294262
 20
-152.0876656554389
 30
0.0
 10
90.2823827928782
 20
-152.4051656553452
 30
0.0
 10
90.28238279289455
 20
-152.7932212108039
 30
0.0
 10
90.28238279289455
 20
-152.7932212108039
 30
0.0
 10
90.28238279312428
 20
-162.7003757494358
 30
0.0
 10
90.28238279312428
 20
-162.7003757494358
 30
0.0
 10
90.28238279312428
 20
-162.7003757494358
 30
0.0
 10
89.2681508592
 20
-162.7003757494358
 30
0.0
 10
89.2681508592
 20
-162.7003757494358
 30
0.0
  0
SPLINE
  5
29C
330
297
100
AcDbEntity
  8
Capa 1
 62
   250
370
     9
100
AcDbSpline
210
0.0
220
0.0
230
1.0
 70
     8
 71
     3
 72
    26
 73
    22
 74
     0
 42
0.0000000001
 43
0.0000000001
 12
1.0
 22
0.0
 32
0.0
 13
1.0
 23
0.0
 33
0.0
 40
0.0
 40
0.0
 40
0.0
 40
0.0
 40
1.0
 40
1.0
 40
1.0
 40
2.0
 40
2.0
 40
2.0
 40
3.0
 40
3.0
 40
3.0
 40
4.0
 40
4.0
 40
4.0
 40
5.0
 40
5.0
 40
5.0
 40
6.0
 40
6.0
 40
6.0
 40
7.0
 40
7.0
 40
7.0
 40
7.0
 10
82.34490163273198
 20
-162.7003757498561
 30
0.0
 10
81.52175656477218
 20
-162.7003757498561
 30
0.0
 10
81.63934607790596
 20
-163.5823184169452
 30
0.0
 10
81.63934607790596
 20
-163.5823184169452
 30
0.0
 10
81.63934607790596
 20
-163.5823184169452
 30
0.0
 10
81.63934607835
 20
-180.0893439142326
 30
0.0
 10
81.63934607835
 20
-180.0893439142326
 30
0.0
 10
81.63934607836669
 20
-180.4773994696913
 30
0.0
 10
81.95684607830195
 20
-180.7948994695977
 30
0.0
 10
82.34490163375997
 20
-180.7948994695797
 30
0.0
 10
82.34490163375997
 20
-180.7948994695797
 30
0.0
 10
90.28238279415228
 20
-180.7948994692236
 30
0.0
 10
90.28238279415228
 20
-180.7948994692236
 30
0.0
 10
90.67043834961032
 20
-180.7948994692062
 30
0.0
 10
90.98793834951734
 20
-180.477399469271
 30
0.0
 10
90.98793834949937
 20
-180.0893439138129
 30
0.0
 10
90.98793834949937
 20
-180.0893439138129
 30
0.0
 10
90.98793834905659
 20
-163.5823184165249
 30
0.0
 10
90.98793834905659
 20
-163.5823184165249
 30
0.0
 10
90.98793834905659
 20
-163.5823184165249
 30
0.0
 10
91.06143072696149
 20
-162.7003757494358
 30
0.0
 10
90.28238279312428
 20
-162.7003757494358
 30
0.0
  0
SPLINE
  5
29D
330
297
100
AcDbEntity
  8
Capa 1
 62
   250
370
     9
100
AcDbSpline
210
0.0
220
0.0
230
1.0
 70
    11
 71
     3
 72
    53
 73
    49
 74
     0
 42
0.0000000001
 43
0.0000000001
 12
1.0
 22
0.0
 32
0.0
 13
1.0
 23
0.0
 33
0.0
 40
0.0
 40
0.0
 40
0.0
 40
0.0
 40
1.0
 40
1.0
 40
1.0
 40
2.0
 40
2.0
 40
2.0
 40
3.0
 40
3.0
 40
3.0
 40
4.0
 40
4.0
 40
4.0
 40
5.0
 40
5.0
 40
5.0
 40
6.0
 40
6.0
 40
6.0
 40
7.0
 40
7.0
 40
7.0
 40
8.0
 40
8.0
 40
8.0
 40
9.0
 40
9.0
 40
9.0
 40
10.0
 40
10.0
 40
10.0
 40
11.0
 40
11.0
 40
11.0
 40
12.0
 40
12.0
 40
12.0
 40
13.0
 40
13.0
 40
13.0
 40
14.0
 40
14.0
 40
14.0
 40
15.0
 40
15.0
 40
15.0
 40
16.0
 40
16.0
 40
16.0
 40
16.0
 10
89.26815085853264
 20
-157.8937869533756
 30
0.0
 10
89.26815085853264
 20
-157.8937869533756
 30
0.0
 10
89.26815085853264
 20
-157.8937858068506
 30
0.0
 10
89.26815085853264
 20
-157.8937858068506
 30
0.0
 10
89.26815085851852
 20
-157.5784919652893
 30
0.0
 10
89.01018316995554
 20
-157.3205242767501
 30
0.0
 10
88.69488932839424
 20
-157.3205242767642
 30
0.0
 10
88.69488932839424
 20
-157.3205242767642
 30
0.0
 10
83.93239509741069
 20
-157.3205242769779
 30
0.0
 10
83.93239509741069
 20
-157.3205242769779
 30
0.0
 10
83.61710125584939
 20
-157.320524276992
 30
0.0
 10
83.3591335673095
 20
-157.5784919655543
 30
0.0
 10
83.3591335673249
 20
-157.8937858071163
 30
0.0
 10
83.3591335673249
 20
-157.8937858071163
 30
0.0
 10
83.35913356799227
 20
-157.8937869536143
 30
0.0
 10
83.35913356799227
 20
-157.8937869536143
 30
0.0
 10
83.35913356799227
 20
-157.8937869536143
 30
0.0
 10
83.35913356799227
 20
-172.7765709464038
 30
0.0
 10
83.35913356799227
 20
-172.7765709464038
 30
0.0
 10
83.35913356799227
 20
-173.0959075632614
 30
0.0
 10
83.62040898178428
 20
-173.3571829770535
 30
0.0
 10
83.9397455986419
 20
-173.3571829770535
 30
0.0
 10
83.9397455986419
 20
-173.3571829770535
 30
0.0
 10
83.9397467598669
 20
-173.3571829770535
 30
0.0
 10
83.9397467598669
 20
-173.3571829770535
 30
0.0
 10
84.25908337672324
 20
-173.3571829770535
 30
0.0
 10
84.52035879051525
 20
-173.0959075632608
 30
0.0
 10
84.52035879051525
 20
-172.7765709464038
 30
0.0
 10
84.52035879051525
 20
-172.7765709464038
 30
0.0
 10
84.52035879051525
 20
-158.5405461699473
 30
0.0
 10
84.52035879051525
 20
-158.5405461699473
 30
0.0
 10
84.52035879051525
 20
-158.5405461699473
 30
0.0
 10
88.1069256360379
 20
-158.5405461697599
 30
0.0
 10
88.1069256360379
 20
-158.5405461697599
 30
0.0
 10
88.1069256360379
 20
-158.5405461697599
 30
0.0
 10
88.10692563667703
 20
-172.7765709462165
 30
0.0
 10
88.10692563667703
 20
-172.7765709462165
 30
0.0
 10
88.10692563669114
 20
-173.0959075630741
 30
0.0
 10
88.3682010504947
 20
-173.3571829768545
 30
0.0
 10
88.68753766735233
 20
-173.3571829768398
 30
0.0
 10
88.68753766735233
 20
-173.3571829768398
 30
0.0
 10
88.68753882857733
 20
-173.3571829768398
 30
0.0
 10
88.68753882857733
 20
-173.3571829768398
 30
0.0
 10
89.00687544543494
 20
-173.3571829768257
 30
0.0
 10
89.26815085921508
 20
-173.0959075630215
 30
0.0
 10
89.2681508592
 20
-172.7765709461651
 30
0.0
 10
89.2681508592
 20
-172.7765709461651
 30
0.0
 10
89.26815085853264
 20
-157.8937869533756
 30
0.0
 10
89.26815085853264
 20
-157.8937869533756
 30
0.0
  0
POLYLINE
  5
29E
330
297
100
AcDbEntity
  8
Capa 1
 62
   250
370
     9
100
AcDb2dPolyline
 66
     1
 10
0.0
 20
0.0
 30
0.0
  0
VERTEX
  5
29F
330
29E
100
AcDbEntity
  8
Capa 1
 62
   250
370
     9
100
AcDbVertex
100
AcDb2dVertex
 10
89.26815085913198
 20
-171.2405205757986
 30
0.0
  0
VERTEX
  5
2A0
330
29E
100
AcDbEntity
  8
Capa 1
 62
   250
370
     9
100
AcDbVertex
100
AcDb2dVertex
 10
88.10692563660773
 20
-171.2405205758506
 30
0.0
  0
SEQEND
  5
2A1
330
29E
100
AcDbEntity
  8
Capa 1
 62
   250
370
     9
  0
POLYLINE
  5
2A2
330
297
100
AcDbEntity
  8
Capa 1
 62
   250
370
     9
100
AcDb2dPolyline
 66
     1
 10
0.0
 20
0.0
 30
0.0
  0
VERTEX
  5
2A3
330
2A2
100
AcDbEntity
  8
Capa 1
 62
   250
370
     9
100
AcDbVertex
100
AcDb2dVertex
 10
84.52035879044723
 20
-171.2405205760116
 30
0.0
  0
VERTEX
  5
2A4
330
2A2
100
AcDbEntity
  8
Capa 1
 62
   250
370
     9
100
AcDbVertex
100
AcDb2dVertex
 10
83.35913356792297
 20
-171.2405205760636
 30
0.0
  0
SEQEND
  5
2A5
330
2A2
100
AcDbEntity
  8
Capa 1
 62
   250
370
     9
  0
POLYLINE
  5
2A6
330
297
100
AcDbEntity
  8
Capa 1
 62
   250
370
     9
100
AcDb2dPolyline
 66
     1
 10
0.0
 20
0.0
 30
0.0
  0
VERTEX
  5
2A7
330
2A6
100
AcDbEntity
  8
Capa 1
 62
   250
370
     9
100
AcDbVertex
100
AcDb2dVertex
 10
90.98793834944932
 20
-178.9722179572074
 30
0.0
  0
VERTEX
  5
2A8
330
2A6
100
AcDbEntity
  8
Capa 1
 62
   250
370
     9
100
AcDbVertex
100
AcDb2dVertex
 10
81.63934607829995
 20
-178.9722179576277
 30
0.0
  0
SEQEND
  5
2A9
330
2A6
100
AcDbEntity
  8
Capa 1
 62
   250
370
     9
  0
ENDBLK
  5
29A
330
297
100
AcDbEntity
  8
0
100
AcDbBlockEnd
  0
BLOCK
  5
2FC
330
2FA
100
AcDbEntity
  8
0
100
AcDbBlockBegin
  2
block 12
 70
     0
 10
0.0
 20
0.0
 30
0.0
  3
block 12
  1

  0
SPLINE
  5
2FE
330
2FA
100
AcDbEntity
  8
Capa 1
 62
   250
370
     9
100
AcDbSpline
210
0.0
220
0.0
230
1.0
 70
    11
 71
     3
 72
    23
 73
    19
 74
     0
 42
0.0000000001
 43
0.0000000001
 12
1.0
 22
0.0
 32
0.0
 13
1.0
 23
0.0
 33
0.0
 40
0.0
 40
0.0
 40
0.0
 40
0.0
 40
1.0
 40
1.0
 40
1.0
 40
2.0
 40
2.0
 40
2.0
 40
3.0
 40
3.0
 40
3.0
 40
4.0
 40
4.0
 40
4.0
 40
5.0
 40
5.0
 40
5.0
 40
6.0
 40
6.0
 40
6.0
 40
6.0
 10
73.49607545161163
 20
-163.4206289275576
 30
0.0
 10
73.49607545161163
 20
-163.4206289275576
 30
0.0
 10
73.49607545161163
 20
-169.0503615307738
 30
0.0
 10
73.49607545161163
 20
-169.0503615307738
 30
0.0
 10
73.49607545161163
 20
-169.4384170862324
 30
0.0
 10
73.1785754516908
 20
-169.7559170861529
 30
0.0
 10
72.79051989623245
 20
-169.7559170861529
 30
0.0
 10
72.79051989623245
 20
-169.7559170861529
 30
0.0
 10
71.29122020559444
 20
-169.7559170861529
 30
0.0
 10
71.29122020559444
 20
-169.7559170861529
 30
0.0
 10
70.9031646501364
 20
-169.7559170861529
 30
0.0
 10
70.58566465021526
 20
-169.4384170862324
 30
0.0
 10
70.58566465021526
 20
-169.0503615307738
 30
0.0
 10
70.58566465021526
 20
-169.0503615307738
 30
0.0
 10
70.58566465021526
 20
-163.4206289275576
 30
0.0
 10
70.58566465021526
 20
-163.4206289275576
 30
0.0
 10
70.58566465021526
 20
-163.4206289275576
 30
0.0
 10
73.49607545161163
 20
-163.4206289275576
 30
0.0
 10
73.49607545161163
 20
-163.4206289275576
 30
0.0
  0
SPLINE
  5
2FF
330
2FA
100
AcDbEntity
  8
Capa 1
 62
   250
370
     9
100
AcDbSpline
210
0.0
220
0.0
230
1.0
 70
    11
 71
     3
 72
    23
 73
    19
 74
     0
 42
0.0000000001
 43
0.0000000001
 12
1.0
 22
0.0
 32
0.0
 13
1.0
 23
0.0
 33
0.0
 40
0.0
 40
0.0
 40
0.0
 40
0.0
 40
1.0
 40
1.0
 40
1.0
 40
2.0
 40
2.0
 40
2.0
 40
3.0
 40
3.0
 40
3.0
 40
4.0
 40
4.0
 40
4.0
 40
5.0
 40
5.0
 40
5.0
 40
6.0
 40
6.0
 40
6.0
 40
6.0
 10
73.49607545161163
 20
-163.4206289275576
 30
0.0
 10
73.49607545161163
 20
-163.4206289275576
 30
0.0
 10
73.49607545161163
 20
-170.2997803091501
 30
0.0
 10
73.49607545161163
 20
-170.2997803091501
 30
0.0
 10
73.49607545161163
 20
-170.6878358646088
 30
0.0
 10
73.1785754516908
 20
-171.0053358645293
 30
0.0
 10
72.79051989623245
 20
-171.0053358645293
 30
0.0
 10
72.79051989623245
 20
-171.0053358645293
 30
0.0
 10
72.74642560629326
 20
-171.0053358645293
 30
0.0
 10
72.74642560629326
 20
-171.0053358645293
 30
0.0
 10
72.35837005083394
 20
-171.0053358645293
 30
0.0
 10
72.0408700509141
 20
-170.6878358646088
 30
0.0
 10
72.0408700509141
 20
-170.2997803091501
 30
0.0
 10
72.0408700509141
 20
-170.2997803091501
 30
0.0
 10
72.0408700509141
 20
-163.4206289275576
 30
0.0
 10
72.0408700509141
 20
-163.4206289275576
 30
0.0
 10
72.0408700509141
 20
-163.4206289275576
 30
0.0
 10
73.49607545161163
 20
-163.4206289275576
 30
0.0
 10
73.49607545161163
 20
-163.4206289275576
 30
0.0
  0
SPLINE
  5
300
330
2FA
100
AcDbEntity
  8
Capa 1
 62
   250
370
     9
100
AcDbSpline
210
0.0
220
0.0
230
1.0
 70
    11
 71
     3
 72
    23
 73
    19
 74
     0
 42
0.0000000001
 43
0.0000000001
 12
1.0
 22
0.0
 32
0.0
 13
1.0
 23
0.0
 33
0.0
 40
0.0
 40
0.0
 40
0.0
 40
0.0
 40
1.0
 40
1.0
 40
1.0
 40
2.0
 40
2.0
 40
2.0
 40
3.0
 40
3.0
 40
3.0
 40
4.0
 40
4.0
 40
4.0
 40
5.0
 40
5.0
 40
5.0
 40
6.0
 40
6.0
 40
6.0
 40
6.0
 10
77.55401182074598
 20
-163.4206289274928
 30
0.0
 10
77.55401182074598
 20
-163.4206289274928
 30
0.0
 10
77.55401182049347
 20
-169.050361530709
 30
0.0
 10
77.55401182049347
 20
-169.050361530709
 30
0.0
 10
77.55401182047518
 20
-169.4384170861676
 30
0.0
 10
77.87151182038093
 20
-169.7559170861022
 30
0.0
 10
78.25956737584023
 20
-169.7559170861196
 30
0.0
 10
78.25956737584023
 20
-169.7559170861196
 30
0.0
 10
79.75886706647698
 20
-169.7559170861869
 30
0.0
 10
79.75886706647698
 20
-169.7559170861869
 30
0.0
 10
80.14692262193661
 20
-169.7559170862042
 30
0.0
 10
80.46442262187026
 20
-169.4384170862979
 30
0.0
 10
80.46442262188823
 20
-169.0503615308392
 30
0.0
 10
80.46442262188823
 20
-169.0503615308392
 30
0.0
 10
80.46442262214106
 20
-163.4206289276231
 30
0.0
 10
80.46442262214106
 20
-163.4206289276231
 30
0.0
 10
80.46442262214106
 20
-163.4206289276231
 30
0.0
 10
77.55401182074598
 20
-163.4206289274928
 30
0.0
 10
77.55401182074598
 20
-163.4206289274928
 30
0.0
  0
SPLINE
  5
301
330
2FA
100
AcDbEntity
  8
Capa 1
 62
   250
370
     9
100
AcDbSpline
210
0.0
220
0.0
230
1.0
 70
    11
 71
     3
 72
    23
 73
    19
 74
     0
 42
0.0000000001
 43
0.0000000001
 12
1.0
 22
0.0
 32
0.0
 13
1.0
 23
0.0
 33
0.0
 40
0.0
 40
0.0
 40
0.0
 40
0.0
 40
1.0
 40
1.0
 40
1.0
 40
2.0
 40
2.0
 40
2.0
 40
3.0
 40
3.0
 40
3.0
 40
4.0
 40
4.0
 40
4.0
 40
5.0
 40
5.0
 40
5.0
 40
6.0
 40
6.0
 40
6.0
 40
6.0
 10
77.55401182074598
 20
-163.4206289274928
 30
0.0
 10
77.55401182074598
 20
-163.4206289274928
 30
0.0
 10
77.55401182043668
 20
-170.2997803090853
 30
0.0
 10
77.55401182043668
 20
-170.2997803090853
 30
0.0
 10
77.55401182041903
 20
-170.687835864544
 30
0.0
 10
77.87151182032574
 20
-171.0053358644786
 30
0.0
 10
78.25956737578345
 20
-171.0053358644959
 30
0.0
 10
78.25956737578345
 20
-171.0053358644959
 30
0.0
 10
78.30366166572297
 20
-171.0053358644979
 30
0.0
 10
78.30366166572297
 20
-171.0053358644979
 30
0.0
 10
78.69171722118229
 20
-171.0053358645152
 30
0.0
 10
79.00921722111754
 20
-170.6878358646088
 30
0.0
 10
79.00921722113422
 20
-170.2997803091501
 30
0.0
 10
79.00921722113422
 20
-170.2997803091501
 30
0.0
 10
79.00921722144352
 20
-163.4206289275576
 30
0.0
 10
79.00921722144352
 20
-163.4206289275576
 30
0.0
 10
79.00921722144352
 20
-163.4206289275576
 30
0.0
 10
77.55401182074598
 20
-163.4206289274928
 30
0.0
 10
77.55401182074598
 20
-163.4206289274928
 30
0.0
  0
ENDBLK
  5
2FD
330
2FA
100
AcDbEntity
  8
0
100
AcDbBlockEnd
  0
BLOCK
  5
304
330
302
100
AcDbEntity
  8
0
100
AcDbBlockBegin
  2
block 13
 70
     0
 10
0.0
 20
0.0
 30
0.0
  3
block 13
  1

  0
SPLINE
  5
306
330
302
100
AcDbEntity
  8
Capa 1
 62
   250
370
     9
100
AcDbSpline
210
0.0
220
0.0
230
1.0
 70
    11
 71
     3
 72
    23
 73
    19
 74
     0
 42
0.0000000001
 43
0.0000000001
 12
1.0
 22
0.0
 32
0.0
 13
1.0
 23
0.0
 33
0.0
 40
0.0
 40
0.0
 40
0.0
 40
0.0
 40
1.0
 40
1.0
 40
1.0
 40
2.0
 40
2.0
 40
2.0
 40
3.0
 40
3.0
 40
3.0
 40
4.0
 40
4.0
 40
4.0
 40
5.0
 40
5.0
 40
5.0
 40
6.0
 40
6.0
 40
6.0
 40
6.0
 10
95.26436018375726
 20
-163.4206289275576
 30
0.0
 10
95.26436018375726
 20
-163.4206289275576
 30
0.0
 10
95.26436018375726
 20
-169.0503615307738
 30
0.0
 10
95.26436018375726
 20
-169.0503615307738
 30
0.0
 10
95.26436018375726
 20
-169.4384170862324
 30
0.0
 10
94.9468601838374
 20
-169.7559170861529
 30
0.0
 10
94.55880462837808
 20
-169.7559170861529
 30
0.0
 10
94.55880462837808
 20
-169.7559170861529
 30
0.0
 10
93.05950493774135
 20
-169.7559170861529
 30
0.0
 10
93.05950493774135
 20
-169.7559170861529
 30
0.0
 10
92.67144938228203
 20
-169.7559170861529
 30
0.0
 10
92.35394938236219
 20
-169.4384170862324
 30
0.0
 10
92.35394938236219
 20
-169.0503615307738
 30
0.0
 10
92.35394938236219
 20
-169.0503615307738
 30
0.0
 10
92.35394938236219
 20
-163.4206289275576
 30
0.0
 10
92.35394938236219
 20
-163.4206289275576
 30
0.0
 10
92.35394938236219
 20
-163.4206289275576
 30
0.0
 10
95.26436018375726
 20
-163.4206289275576
 30
0.0
 10
95.26436018375726
 20
-163.4206289275576
 30
0.0
  0
SPLINE
  5
307
330
302
100
AcDbEntity
  8
Capa 1
 62
   250
370
     9
100
AcDbSpline
210
0.0
220
0.0
230
1.0
 70
    11
 71
     3
 72
    23
 73
    19
 74
     0
 42
0.0000000001
 43
0.0000000001
 12
1.0
 22
0.0
 32
0.0
 13
1.0
 23
0.0
 33
0.0
 40
0.0
 40
0.0
 40
0.0
 40
0.0
 40
1.0
 40
1.0
 40
1.0
 40
2.0
 40
2.0
 40
2.0
 40
3.0
 40
3.0
 40
3.0
 40
4.0
 40
4.0
 40
4.0
 40
5.0
 40
5.0
 40
5.0
 40
6.0
 40
6.0
 40
6.0
 40
6.0
 10
95.26436018375726
 20
-163.4206289275576
 30
0.0
 10
95.26436018375726
 20
-163.4206289275576
 30
0.0
 10
95.26436018375726
 20
-170.2997803091501
 30
0.0
 10
95.26436018375726
 20
-170.2997803091501
 30
0.0
 10
95.26436018375726
 20
-170.6878358646088
 30
0.0
 10
94.9468601838374
 20
-171.0053358645293
 30
0.0
 10
94.55880462837808
 20
-171.0053358645293
 30
0.0
 10
94.55880462837808
 20
-171.0053358645293
 30
0.0
 10
94.51471033843889
 20
-171.0053358645293
 30
0.0
 10
94.51471033843889
 20
-171.0053358645293
 30
0.0
 10
94.12665478297957
 20
-171.0053358645293
 30
0.0
 10
93.80915478305972
 20
-170.6878358646088
 30
0.0
 10
93.80915478305972
 20
-170.2997803091501
 30
0.0
 10
93.80915478305972
 20
-170.2997803091501
 30
0.0
 10
93.80915478305972
 20
-163.4206289275576
 30
0.0
 10
93.80915478305972
 20
-163.4206289275576
 30
0.0
 10
93.80915478305972
 20
-163.4206289275576
 30
0.0
 10
95.26436018375726
 20
-163.4206289275576
 30
0.0
 10
95.26436018375726
 20
-163.4206289275576
 30
0.0
  0
SPLINE
  5
308
330
302
100
AcDbEntity
  8
Capa 1
 62
   250
370
     9
100
AcDbSpline
210
0.0
220
0.0
230
1.0
 70
    11
 71
     3
 72
    23
 73
    19
 74
     0
 42
0.0000000001
 43
0.0000000001
 12
1.0
 22
0.0
 32
0.0
 13
1.0
 23
0.0
 33
0.0
 40
0.0
 40
0.0
 40
0.0
 40
0.0
 40
1.0
 40
1.0
 40
1.0
 40
2.0
 40
2.0
 40
2.0
 40
3.0
 40
3.0
 40
3.0
 40
4.0
 40
4.0
 40
4.0
 40
5.0
 40
5.0
 40
5.0
 40
6.0
 40
6.0
 40
6.0
 40
6.0
 10
99.32229655289161
 20
-163.4206289274928
 30
0.0
 10
99.32229655289161
 20
-163.4206289274928
 30
0.0
 10
99.32229655263879
 20
-169.050361530709
 30
0.0
 10
99.32229655263879
 20
-169.050361530709
 30
0.0
 10
99.32229655262083
 20
-169.4384170861676
 30
0.0
 10
99.63979655252784
 20
-169.7559170861022
 30
0.0
 10
100.0278521079859
 20
-169.7559170861196
 30
0.0
 10
100.0278521079859
 20
-169.7559170861196
 30
0.0
 10
101.5271517986239
 20
-169.7559170861869
 30
0.0
 10
101.5271517986239
 20
-169.7559170861869
 30
0.0
 10
101.9152073540819
 20
-169.7559170862042
 30
0.0
 10
102.2327073540172
 20
-169.4384170862979
 30
0.0
 10
102.2327073540339
 20
-169.0503615308392
 30
0.0
 10
102.2327073540339
 20
-169.0503615308392
 30
0.0
 10
102.2327073542867
 20
-163.4206289276231
 30
0.0
 10
102.2327073542867
 20
-163.4206289276231
 30
0.0
 10
102.2327073542867
 20
-163.4206289276231
 30
0.0
 10
99.32229655289161
 20
-163.4206289274928
 30
0.0
 10
99.32229655289161
 20
-163.4206289274928
 30
0.0
  0
SPLINE
  5
309
330
302
100
AcDbEntity
  8
Capa 1
 62
   250
370
     9
100
AcDbSpline
210
0.0
220
0.0
230
1.0
 70
    11
 71
     3
 72
    23
 73
    19
 74
     0
 42
0.0000000001
 43
0.0000000001
 12
1.0
 22
0.0
 32
0.0
 13
1.0
 23
0.0
 33
0.0
 40
0.0
 40
0.0
 40
0.0
 40
0.0
 40
1.0
 40
1.0
 40
1.0
 40
2.0
 40
2.0
 40
2.0
 40
3.0
 40
3.0
 40
3.0
 40
4.0
 40
4.0
 40
4.0
 40
5.0
 40
5.0
 40
5.0
 40
6.0
 40
6.0
 40
6.0
 40
6.0
 10
99.32229655289161
 20
-163.4206289274928
 30
0.0
 10
99.32229655289161
 20
-163.4206289274928
 30
0.0
 10
99.32229655258232
 20
-170.2997803090853
 30
0.0
 10
99.32229655258232
 20
-170.2997803090853
 30
0.0
 10
99.32229655256563
 20
-170.687835864544
 30
0.0
 10
99.63979655247137
 20
-171.0053358644786
 30
0.0
 10
100.0278521079294
 20
-171.0053358644959
 30
0.0
 10
100.0278521079294
 20
-171.0053358644959
 30
0.0
 10
100.0719463978699
 20
-171.0053358644979
 30
0.0
 10
100.0719463978699
 20
-171.0053358644979
 30
0.0
 10
100.4600019533279
 20
-171.0053358645152
 30
0.0
 10
100.7775019532632
 20
-170.6878358646088
 30
0.0
 10
100.7775019532799
 20
-170.2997803091501
 30
0.0
 10
100.7775019532799
 20
-170.2997803091501
 30
0.0
 10
100.7775019535892
 20
-163.4206289275576
 30
0.0
 10
100.7775019535892
 20
-163.4206289275576
 30
0.0
 10
100.7775019535892
 20
-163.4206289275576
 30
0.0
 10
99.32229655289161
 20
-163.4206289274928
 30
0.0
 10
99.32229655289161
 20
-163.4206289274928
 30
0.0
  0
ENDBLK
  5
305
330
302
100
AcDbEntity
  8
0
100
AcDbBlockEnd
  0
ENDSEC
  0
SECTION
  2
ENTITIES
  0
POLYLINE
  5
41
330
1F
100
AcDbEntity
  8
Capa 1
 62
   250
370
     9
100
AcDb2dPolyline
 66
     1
 10
0.0
 20
0.0
 30
0.0
  0
VERTEX
  5
42
330
41
100
AcDbEntity
  8
Capa 1
 62
   250
370
     9
100
AcDbVertex
100
AcDb2dVertex
 10
144.036779822378
 20
-162.8032690605973
 30
0.0
  0
VERTEX
  5
43
330
41
100
AcDbEntity
  8
Capa 1
 62
   250
370
     9
100
AcDbVertex
100
AcDb2dVertex
 10
144.036779822378
 20
-158.128972925022
 30
0.0
  0
VERTEX
  5
44
330
41
100
AcDbEntity
  8
Capa 1
 62
   250
370
     9
100
AcDbVertex
100
AcDb2dVertex
 10
142.5044044383087
 20
-158.128972925022
 30
0.0
  0
VERTEX
  5
45
330
41
100
AcDbEntity
  8
Capa 1
 62
   250
370
     9
100
AcDbVertex
100
AcDb2dVertex
 10
142.5044044383087
 20
-153.8956481229922
 30
0.0
  0
VERTEX
  5
46
330
41
100
AcDbEntity
  8
Capa 1
 62
   250
370
     9
100
AcDbVertex
100
AcDb2dVertex
 10
144.036779822378
 20
-153.8956481229922
 30
0.0
  0
VERTEX
  5
47
330
41
100
AcDbEntity
  8
Capa 1
 62
   250
370
     9
100
AcDbVertex
100
AcDb2dVertex
 10
144.036779822378
 20
-151.2498201217234
 30
0.0
  0
VERTEX
  5
48
330
41
100
AcDbEntity
  8
Capa 1
 62
   250
370
     9
100
AcDbVertex
100
AcDb2dVertex
 10
140.9720290542394
 20
-151.2498201217234
 30
0.0
  0
VERTEX
  5
49
330
41
100
AcDbEntity
  8
Capa 1
 62
   250
370
     9
100
AcDbVertex
100
AcDb2dVertex
 10
140.9720290542394
 20
-102.1256135648297
 30
0.0
  0
VERTEX
  5
4A
330
41
100
AcDbEntity
  8
Capa 1
 62
   250
370
     9
100
AcDbVertex
100
AcDb2dVertex
 10
136.7901509077904
 20
-102.1256135648297
 30
0.0
  0
VERTEX
  5
4B
330
41
100
AcDbEntity
  8
Capa 1
 62
   250
370
     9
100
AcDbVertex
100
AcDb2dVertex
 10
136.7901509077904
 20
-104.0217902990724
 30
0.0
  0
VERTEX
  5
4C
330
41
100
AcDbEntity
  8
Capa 1
 62
   250
370
     9
100
AcDbVertex
100
AcDb2dVertex
 10
139.2007941978354
 20
-104.0217902990724
 30
0.0
  0
VERTEX
  5
4D
330
41
100
AcDbEntity
  8
Capa 1
 62
   250
370
     9
100
AcDbVertex
100
AcDb2dVertex
 10
139.2007941978354
 20
-112.8118188810657
 30
0.0
  0
VERTEX
  5
4E
330
41
100
AcDbEntity
  8
Capa 1
 62
   250
370
     9
100
AcDbVertex
100
AcDb2dVertex
 10
137.8190840193943
 20
-112.8118188810657
 30
0.0
  0
VERTEX
  5
4F
330
41
100
AcDbEntity
  8
Capa 1
 62
   250
370
     9
100
AcDbVertex
100
AcDb2dVertex
 10
137.8190840193943
 20
-125.1884143092245
 30
0.0
  0
VERTEX
  5
50
330
41
100
AcDbEntity
  8
Capa 1
 62
   250
370
     9
100
AcDbVertex
100
AcDb2dVertex
 10
139.3569715451348
 20
-125.1884143092245
 30
0.0
  0
VERTEX
  5
51
330
41
100
AcDbEntity
  8
Capa 1
 62
   250
370
     9
100
AcDbVertex
100
AcDb2dVertex
 10
139.3569715451348
 20
-130.4800703117621
 30
0.0
  0
VERTEX
  5
52
330
41
100
AcDbEntity
  8
Capa 1
 62
   250
370
     9
100
AcDbVertex
100
AcDb2dVertex
 10
140.9720290542394
 20
-130.4506722228592
 30
0.0
  0
SEQEND
  5
53
330
41
100
AcDbEntity
  8
Capa 1
 62
   250
370
     9
  0
POLYLINE
  5
54
330
1F
100
AcDbEntity
  8
Capa 1
 62
   250
370
     9
100
AcDb2dPolyline
 66
     1
 10
0.0
 20
0.0
 30
0.0
  0
VERTEX
  5
55
330
54
100
AcDbEntity
  8
Capa 1
 62
   250
370
     9
100
AcDbVertex
100
AcDb2dVertex
 10
156.6044628270429
 20
-162.803269060435
 30
0.0
  0
VERTEX
  5
56
330
54
100
AcDbEntity
  8
Capa 1
 62
   250
370
     9
100
AcDbVertex
100
AcDb2dVertex
 10
156.6044628272533
 20
-158.1289729248597
 30
0.0
  0
VERTEX
  5
57
330
54
100
AcDbEntity
  8
Capa 1
 62
   250
370
     9
100
AcDbVertex
100
AcDb2dVertex
 10
158.1368382113227
 20
-158.1289729249283
 30
0.0
  0
VERTEX
  5
58
330
54
100
AcDbEntity
  8
Capa 1
 62
   250
370
     9
100
AcDbVertex
100
AcDb2dVertex
 10
158.1368382115126
 20
-153.8956481228985
 30
0.0
  0
VERTEX
  5
59
330
54
100
AcDbEntity
  8
Capa 1
 62
   250
370
     9
100
AcDbVertex
100
AcDb2dVertex
 10
156.6044628274433
 20
-153.8956481228299
 30
0.0
  0
VERTEX
  5
5A
330
54
100
AcDbEntity
  8
Capa 1
 62
   250
370
     9
100
AcDbVertex
100
AcDb2dVertex
 10
156.6044628275627
 20
-151.2498201215611
 30
0.0
  0
VERTEX
  5
5B
330
54
100
AcDbEntity
  8
Capa 1
 62
   250
370
     9
100
AcDbVertex
100
AcDb2dVertex
 10
159.6692135957013
 20
-151.2498201216984
 30
0.0
  0
VERTEX
  5
5C
330
54
100
AcDbEntity
  8
Capa 1
 62
   250
370
     9
100
AcDbVertex
100
AcDb2dVertex
 10
159.6692135979062
 20
-102.125613564805
 30
0.0
  0
VERTEX
  5
5D
330
54
100
AcDbEntity
  8
Capa 1
 62
   250
370
     9
100
AcDbVertex
100
AcDb2dVertex
 10
163.8510917443565
 20
-102.1256135649927
 30
0.0
  0
VERTEX
  5
5E
330
54
100
AcDbEntity
  8
Capa 1
 62
   250
370
     9
100
AcDbVertex
100
AcDb2dVertex
 10
163.8510917442705
 20
-104.0217902992354
 30
0.0
  0
VERTEX
  5
5F
330
54
100
AcDbEntity
  8
Capa 1
 62
   250
370
     9
100
AcDbVertex
100
AcDb2dVertex
 10
161.4404484542255
 20
-104.021790299127
 30
0.0
  0
VERTEX
  5
60
330
54
100
AcDbEntity
  8
Capa 1
 62
   250
370
     9
100
AcDbVertex
100
AcDb2dVertex
 10
161.4404484538315
 20
-112.8118188811202
 30
0.0
  0
VERTEX
  5
61
330
54
100
AcDbEntity
  8
Capa 1
 62
   250
370
     9
100
AcDbVertex
100
AcDb2dVertex
 10
162.8221586322713
 20
-112.8118188811821
 30
0.0
  0
VERTEX
  5
62
330
54
100
AcDbEntity
  8
Capa 1
 62
   250
370
     9
100
AcDbVertex
100
AcDb2dVertex
 10
162.8221586317156
 20
-125.188414309341
 30
0.0
  0
VERTEX
  5
63
330
54
100
AcDbEntity
  8
Capa 1
 62
   250
370
     9
100
AcDbVertex
100
AcDb2dVertex
 10
161.2842711059751
 20
-125.188414309272
 30
0.0
  0
VERTEX
  5
64
330
54
100
AcDbEntity
  8
Capa 1
 62
   250
370
     9
100
AcDbVertex
100
AcDb2dVertex
 10
161.2842711057377
 20
-130.4800703118096
 30
0.0
  0
VERTEX
  5
65
330
54
100
AcDbEntity
  8
Capa 1
 62
   250
370
     9
100
AcDbVertex
100
AcDb2dVertex
 10
159.6692135966344
 20
-130.4506722228342
 30
0.0
  0
SEQEND
  5
66
330
54
100
AcDbEntity
  8
Capa 1
 62
   250
370
     9
  0
INSERT
  5
68
330
1F
100
AcDbEntity
  8
Capa 1
100
AcDbBlockReference
  2
block 2
 10
0.0
 20
0.0
 30
0.0
  0
POLYLINE
  5
82
330
1F
100
AcDbEntity
  8
Capa 1
 62
   250
370
     9
100
AcDb2dPolyline
 66
     1
 10
0.0
 20
0.0
 30
0.0
  0
VERTEX
  5
83
330
82
100
AcDbEntity
  8
Capa 1
 62
   250
370
     9
100
AcDbVertex
100
AcDb2dVertex
 10
136.6946071184528
 20
-143.7753560180411
 30
0.0
  0
VERTEX
  5
84
330
82
100
AcDbEntity
  8
Capa 1
 62
   250
370
     9
100
AcDbVertex
100
AcDb2dVertex
 10
140.9720290537042
 20
-143.7753560182333
 30
0.0
  0
VERTEX
  5
85
330
82
100
AcDbEntity
  8
Capa 1
 62
   250
370
     9
100
AcDbVertex
100
AcDb2dVertex
 10
140.9720290541136
 20
-134.6721401785815
 30
0.0
  0
VERTEX
  5
86
330
82
100
AcDbEntity
  8
Capa 1
 62
   250
370
     9
100
AcDbVertex
100
AcDb2dVertex
 10
136.6946071188622
 20
-134.6721401783893
 30
0.0
  0
VERTEX
  5
87
330
82
100
AcDbEntity
  8
Capa 1
 62
   250
370
     9
100
AcDbVertex
100
AcDb2dVertex
 10
136.6946071184528
 20
-143.7753560180411
 30
0.0
  0
SEQEND
  5
88
330
82
100
AcDbEntity
  8
Capa 1
 62
   250
370
     9
  0
POLYLINE
  5
89
330
1F
100
AcDbEntity
  8
Capa 1
 62
   250
370
     9
100
AcDb2dPolyline
 66
     1
 10
0.0
 20
0.0
 30
0.0
  0
VERTEX
  5
8A
330
89
100
AcDbEntity
  8
Capa 1
 62
   250
370
     9
100
AcDbVertex
100
AcDb2dVertex
 10
140.9720290542394
 20
-131.8470814458456
 30
0.0
  0
VERTEX
  5
8B
330
89
100
AcDbEntity
  8
Capa 1
 62
   250
370
     9
100
AcDbVertex
100
AcDb2dVertex
 10
139.4506779536433
 20
-131.8470814457773
 30
0.0
  0
VERTEX
  5
8C
330
89
100
AcDbEntity
  8
Capa 1
 62
   250
370
     9
100
AcDbVertex
100
AcDb2dVertex
 10
137.7419140360815
 20
-133.5558453631866
 30
0.0
  0
VERTEX
  5
8D
330
89
100
AcDbEntity
  8
Capa 1
 62
   250
370
     9
100
AcDbVertex
100
AcDb2dVertex
 10
137.7419140360315
 20
-134.6721401784365
 30
0.0
  0
VERTEX
  5
8E
330
89
100
AcDbEntity
  8
Capa 1
 62
   250
370
     9
100
AcDbVertex
100
AcDb2dVertex
 10
140.9720290541136
 20
-134.6721401785815
 30
0.0
  0
VERTEX
  5
8F
330
89
100
AcDbEntity
  8
Capa 1
 62
   250
370
     9
100
AcDbVertex
100
AcDb2dVertex
 10
140.9720290542394
 20
-131.8470814458456
 30
0.0
  0
SEQEND
  5
90
330
89
100
AcDbEntity
  8
Capa 1
 62
   250
370
     9
  0
POLYLINE
  5
91
330
1F
100
AcDbEntity
  8
Capa 1
 62
   250
370
     9
100
AcDb2dPolyline
 66
     1
 10
0.0
 20
0.0
 30
0.0
  0
VERTEX
  5
92
330
91
100
AcDbEntity
  8
Capa 1
 62
   250
370
     9
100
AcDbVertex
100
AcDb2dVertex
 10
140.9720290535771
 20
-146.6004147509695
 30
0.0
  0
VERTEX
  5
93
330
91
100
AcDbEntity
  8
Capa 1
 62
   250
370
     9
100
AcDbVertex
100
AcDb2dVertex
 10
139.450677952981
 20
-146.6004147509008
 30
0.0
  0
VERTEX
  5
94
330
91
100
AcDbEntity
  8
Capa 1
 62
   250
370
     9
100
AcDbVertex
100
AcDb2dVertex
 10
137.741914035572
 20
-144.8916508333384
 30
0.0
  0
VERTEX
  5
95
330
91
100
AcDbEntity
  8
Capa 1
 62
   250
370
     9
100
AcDbVertex
100
AcDb2dVertex
 10
137.7419140356221
 20
-143.7753560180882
 30
0.0
  0
VERTEX
  5
96
330
91
100
AcDbEntity
  8
Capa 1
 62
   250
370
     9
100
AcDbVertex
100
AcDb2dVertex
 10
140.9720290537042
 20
-143.7753560182333
 30
0.0
  0
VERTEX
  5
97
330
91
100
AcDbEntity
  8
Capa 1
 62
   250
370
     9
100
AcDbVertex
100
AcDb2dVertex
 10
140.9720290535771
 20
-146.6004147509695
 30
0.0
  0
SEQEND
  5
98
330
91
100
AcDbEntity
  8
Capa 1
 62
   250
370
     9
  0
INSERT
  5
9A
330
1F
100
AcDbEntity
  8
Capa 1
100
AcDbBlockReference
  2
block 3
 10
0.0
 20
0.0
 30
0.0
  0
POLYLINE
  5
AB
330
1F
100
AcDbEntity
  8
Capa 1
 62
   250
370
     9
100
AcDb2dPolyline
 66
     1
 10
0.0
 20
0.0
 30
0.0
  0
VERTEX
  5
AC
330
AB
100
AcDbEntity
  8
Capa 1
 62
   250
370
     9
100
AcDbVertex
100
AcDb2dVertex
 10
140.9720290542394
 20
-118.1769701058609
 30
0.0
  0
VERTEX
  5
AD
330
AB
100
AcDbEntity
  8
Capa 1
 62
   250
370
     9
100
AcDbVertex
100
AcDb2dVertex
 10
143.0445943219011
 20
-118.1769701058609
 30
0.0
  0
SEQEND
  5
AE
330
AB
100
AcDbEntity
  8
Capa 1
 62
   250
370
     9
  0
POLYLINE
  5
AF
330
1F
100
AcDbEntity
  8
Capa 1
 62
   250
370
     9
100
AcDb2dPolyline
 66
     1
 10
0.0
 20
0.0
 30
0.0
  0
VERTEX
  5
B0
330
AF
100
AcDbEntity
  8
Capa 1
 62
   250
370
     9
100
AcDbVertex
100
AcDb2dVertex
 10
148.5567359912104
 20
-118.1769701058609
 30
0.0
  0
VERTEX
  5
B1
330
AF
100
AcDbEntity
  8
Capa 1
 62
   250
370
     9
100
AcDbVertex
100
AcDb2dVertex
 10
151.9522152595055
 20
-118.1769701058609
 30
0.0
  0
SEQEND
  5
B2
330
AF
100
AcDbEntity
  8
Capa 1
 62
   250
370
     9
  0
POLYLINE
  5
B3
330
1F
100
AcDbEntity
  8
Capa 1
 62
   250
370
     9
100
AcDb2dPolyline
 66
     1
 10
0.0
 20
0.0
 30
0.0
  0
VERTEX
  5
B4
330
B3
100
AcDbEntity
  8
Capa 1
 62
   250
370
     9
100
AcDbVertex
100
AcDb2dVertex
 10
157.4643569288162
 20
-118.1769701058609
 30
0.0
  0
VERTEX
  5
B5
330
B3
100
AcDbEntity
  8
Capa 1
 62
   250
370
     9
100
AcDbVertex
100
AcDb2dVertex
 10
159.6471650299959
 20
-118.1769701058609
 30
0.0
  0
SEQEND
  5
B6
330
B3
100
AcDbEntity
  8
Capa 1
 62
   250
370
     9
  0
POLYLINE
  5
B7
330
1F
100
AcDbEntity
  8
Capa 1
 62
   250
370
     9
100
AcDb2dPolyline
 66
     1
 10
0.0
 20
0.0
 30
0.0
  0
VERTEX
  5
B8
330
B7
100
AcDbEntity
  8
Capa 1
 62
   250
370
     9
100
AcDbVertex
100
AcDb2dVertex
 10
140.9720290542394
 20
-111.5183029693338
 30
0.0
  0
VERTEX
  5
B9
330
B7
100
AcDbEntity
  8
Capa 1
 62
   250
370
     9
100
AcDbVertex
100
AcDb2dVertex
 10
159.6471650295673
 20
-111.5183029693338
 30
0.0
  0
SEQEND
  5
BA
330
B7
100
AcDbEntity
  8
Capa 1
 62
   250
370
     9
  0
POLYLINE
  5
BB
330
1F
100
AcDbEntity
  8
Capa 1
 62
   250
370
     9
100
AcDb2dPolyline
 66
     1
 10
0.0
 20
0.0
 30
0.0
  0
VERTEX
  5
BC
330
BB
100
AcDbEntity
  8
Capa 1
 62
   250
370
     9
100
AcDbVertex
100
AcDb2dVertex
 10
157.4643569288162
 20
-111.5183029693338
 30
0.0
  0
VERTEX
  5
BD
330
BB
100
AcDbEntity
  8
Capa 1
 62
   250
370
     9
100
AcDbVertex
100
AcDb2dVertex
 10
157.4643569288162
 20
-115.2665593044649
 30
0.0
  0
VERTEX
  5
BE
330
BB
100
AcDbEntity
  8
Capa 1
 62
   250
370
     9
100
AcDbVertex
100
AcDb2dVertex
 10
159.6471650294069
 20
-115.2665593044649
 30
0.0
  0
SEQEND
  5
BF
330
BB
100
AcDbEntity
  8
Capa 1
 62
   250
370
     9
  0
POLYLINE
  5
C0
330
1F
100
AcDbEntity
  8
Capa 1
 62
   250
370
     9
100
AcDb2dPolyline
 66
     1
 10
0.0
 20
0.0
 30
0.0
  0
VERTEX
  5
C1
330
C0
100
AcDbEntity
  8
Capa 1
 62
   250
370
     9
100
AcDbVertex
100
AcDb2dVertex
 10
162.7192653202255
 20
-162.8032690605287
 30
0.0
  0
VERTEX
  5
C2
330
C0
100
AcDbEntity
  8
Capa 1
 62
   250
370
     9
100
AcDbVertex
100
AcDb2dVertex
 10
137.966074463911
 20
-162.8032690605287
 30
0.0
  0
VERTEX
  5
C3
330
C0
100
AcDbEntity
  8
Capa 1
 62
   250
370
     9
100
AcDbVertex
100
AcDb2dVertex
 10
137.966074463911
 20
-152.0876656554568
 30
0.0
  0
VERTEX
  5
C4
330
C0
100
AcDbEntity
  8
Capa 1
 62
   250
370
     9
100
AcDbVertex
100
AcDb2dVertex
 10
162.7192653202255
 20
-152.0876656554568
 30
0.0
  0
VERTEX
  5
C5
330
C0
100
AcDbEntity
  8
Capa 1
 62
   250
370
     9
100
AcDbVertex
100
AcDb2dVertex
 10
162.7192653202255
 20
-162.8032690605287
 30
0.0
  0
SEQEND
  5
C6
330
C0
100
AcDbEntity
  8
Capa 1
 62
   250
370
     9
  0
POLYLINE
  5
C7
330
1F
100
AcDbEntity
  8
Capa 1
 62
   250
370
     9
100
AcDb2dPolyline
 66
     1
 10
0.0
 20
0.0
 30
0.0
  0
VERTEX
  5
C8
330
C7
100
AcDbEntity
  8
Capa 1
 62
   250
370
     9
100
AcDbVertex
100
AcDb2dVertex
 10
140.9720290537042
 20
-152.0876656554568
 30
0.0
  0
VERTEX
  5
C9
330
C7
100
AcDbEntity
  8
Capa 1
 62
   250
370
     9
100
AcDbVertex
100
AcDb2dVertex
 10
140.9720290537042
 20
-162.8032690605287
 30
0.0
  0
SEQEND
  5
CA
330
C7
100
AcDbEntity
  8
Capa 1
 62
   250
370
     9
  0
POLYLINE
  5
CB
330
1F
100
AcDbEntity
  8
Capa 1
 62
   250
370
     9
100
AcDb2dPolyline
 66
     1
 10
0.0
 20
0.0
 30
0.0
  0
VERTEX
  5
CC
330
CB
100
AcDbEntity
  8
Capa 1
 62
   250
370
     9
100
AcDbVertex
100
AcDb2dVertex
 10
159.6471650299959
 20
-152.0876656554568
 30
0.0
  0
VERTEX
  5
CD
330
CB
100
AcDbEntity
  8
Capa 1
 62
   250
370
     9
100
AcDbVertex
100
AcDb2dVertex
 10
159.6471650299959
 20
-162.8032690605287
 30
0.0
  0
SEQEND
  5
CE
330
CB
100
AcDbEntity
  8
Capa 1
 62
   250
370
     9
  0
POLYLINE
  5
CF
330
1F
100
AcDbEntity
  8
Capa 1
 62
   250
370
     9
100
AcDb2dPolyline
 66
     1
 10
0.0
 20
0.0
 30
0.0
  0
VERTEX
  5
D0
330
CF
100
AcDbEntity
  8
Capa 1
 62
   250
370
     9
100
AcDbVertex
100
AcDb2dVertex
 10
139.3569642223592
 20
-125.2581010651532
 30
0.0
  0
VERTEX
  5
D1
330
CF
100
AcDbEntity
  8
Capa 1
 62
   250
370
     9
100
AcDbVertex
100
AcDb2dVertex
 10
140.9720290537042
 20
-125.2581010651532
 30
0.0
  0
SEQEND
  5
D2
330
CF
100
AcDbEntity
  8
Capa 1
 62
   250
370
     9
  0
POLYLINE
  5
D3
330
1F
100
AcDbEntity
  8
Capa 1
 62
   250
370
     9
100
AcDb2dPolyline
 66
     1
 10
0.0
 20
0.0
 30
0.0
  0
VERTEX
  5
D4
330
D3
100
AcDbEntity
  8
Capa 1
 62
   250
370
     9
100
AcDbVertex
100
AcDb2dVertex
 10
159.6692099354776
 20
-125.2581010651532
 30
0.0
  0
VERTEX
  5
D5
330
D3
100
AcDbEntity
  8
Capa 1
 62
   250
370
     9
100
AcDbVertex
100
AcDb2dVertex
 10
161.2842747668226
 20
-125.2581010651532
 30
0.0
  0
SEQEND
  5
D6
330
D3
100
AcDbEntity
  8
Capa 1
 62
   250
370
     9
  0
POLYLINE
  5
D7
330
1F
100
AcDbEntity
  8
Capa 1
 62
   250
370
     9
100
AcDb2dPolyline
 66
     1
 10
0.0
 20
0.0
 30
0.0
  0
VERTEX
  5
D8
330
D7
100
AcDbEntity
  8
Capa 1
 62
   250
370
     9
100
AcDbVertex
100
AcDb2dVertex
 10
139.3569715451348
 20
-129.5099333779659
 30
0.0
  0
VERTEX
  5
D9
330
D7
100
AcDbEntity
  8
Capa 1
 62
   250
370
     9
100
AcDbVertex
100
AcDb2dVertex
 10
140.9720290537042
 20
-129.5099333779659
 30
0.0
  0
SEQEND
  5
DA
330
D7
100
AcDbEntity
  8
Capa 1
 62
   250
370
     9
  0
POLYLINE
  5
DB
330
1F
100
AcDbEntity
  8
Capa 1
 62
   250
370
     9
100
AcDb2dPolyline
 66
     1
 10
0.0
 20
0.0
 30
0.0
  0
VERTEX
  5
DC
330
DB
100
AcDbEntity
  8
Capa 1
 62
   250
370
     9
100
AcDbVertex
100
AcDb2dVertex
 10
159.6692135968654
 20
-129.5099333779659
 30
0.0
  0
VERTEX
  5
DD
330
DB
100
AcDbEntity
  8
Capa 1
 62
   250
370
     9
100
AcDbVertex
100
AcDb2dVertex
 10
161.2842711054348
 20
-129.5099333779659
 30
0.0
  0
SEQEND
  5
DE
330
DB
100
AcDbEntity
  8
Capa 1
 62
   250
370
     9
  0
POLYLINE
  5
DF
330
1F
100
AcDbEntity
  8
Capa 1
 62
   250
370
     9
100
AcDb2dPolyline
 66
     1
 10
0.0
 20
0.0
 30
0.0
  0
VERTEX
  5
E0
330
DF
100
AcDbEntity
  8
Capa 1
 62
   250
370
     9
100
AcDbVertex
100
AcDb2dVertex
 10
158.1368382114472
 20
-156.8060589243892
 30
0.0
  0
VERTEX
  5
E1
330
DF
100
AcDbEntity
  8
Capa 1
 62
   250
370
     9
100
AcDbVertex
100
AcDb2dVertex
 10
142.5044044383087
 20
-156.8060589243892
 30
0.0
  0
VERTEX
  5
E2
330
DF
100
AcDbEntity
  8
Capa 1
 62
   250
370
     9
100
AcDbVertex
100
AcDb2dVertex
 10
142.5044044383087
 20
-153.8956481229922
 30
0.0
  0
VERTEX
  5
E3
330
DF
100
AcDbEntity
  8
Capa 1
 62
   250
370
     9
100
AcDbVertex
100
AcDb2dVertex
 10
158.1368382114472
 20
-153.8956481229922
 30
0.0
  0
VERTEX
  5
E4
330
DF
100
AcDbEntity
  8
Capa 1
 62
   250
370
     9
100
AcDbVertex
100
AcDb2dVertex
 10
158.1368382114472
 20
-156.8060589243892
 30
0.0
  0
SEQEND
  5
E5
330
DF
100
AcDbEntity
  8
Capa 1
 62
   250
370
     9
  0
POLYLINE
  5
E6
330
1F
100
AcDbEntity
  8
Capa 1
 62
   250
370
     9
100
AcDb2dPolyline
 66
     1
 10
0.0
 20
0.0
 30
0.0
  0
VERTEX
  5
E7
330
E6
100
AcDbEntity
  8
Capa 1
 62
   250
370
     9
100
AcDbVertex
100
AcDb2dVertex
 10
144.4777511559204
 20
-153.8956481229922
 30
0.0
  0
VERTEX
  5
E8
330
E6
100
AcDbEntity
  8
Capa 1
 62
   250
370
     9
100
AcDbVertex
100
AcDb2dVertex
 10
144.4777511559204
 20
-156.8060589243892
 30
0.0
  0
SEQEND
  5
E9
330
E6
100
AcDbEntity
  8
Capa 1
 62
   250
370
     9
  0
POLYLINE
  5
EA
330
1F
100
AcDbEntity
  8
Capa 1
 62
   250
370
     9
100
AcDb2dPolyline
 66
     1
 10
0.0
 20
0.0
 30
0.0
  0
VERTEX
  5
EB
330
EA
100
AcDbEntity
  8
Capa 1
 62
   250
370
     9
100
AcDbVertex
100
AcDb2dVertex
 10
156.1414429281814
 20
-153.8956481229922
 30
0.0
  0
VERTEX
  5
EC
330
EA
100
AcDbEntity
  8
Capa 1
 62
   250
370
     9
100
AcDbVertex
100
AcDb2dVertex
 10
156.1414429281814
 20
-156.8060589243892
 30
0.0
  0
SEQEND
  5
ED
330
EA
100
AcDbEntity
  8
Capa 1
 62
   250
370
     9
  0
POLYLINE
  5
EE
330
1F
100
AcDbEntity
  8
Capa 1
 62
   250
370
     9
100
AcDb2dPolyline
 66
     1
 10
0.0
 20
0.0
 30
0.0
  0
VERTEX
  5
EF
330
EE
100
AcDbEntity
  8
Capa 1
 62
   250
370
     9
100
AcDbVertex
100
AcDb2dVertex
 10
144.036779822378
 20
-152.0876656554568
 30
0.0
  0
VERTEX
  5
F0
330
EE
100
AcDbEntity
  8
Capa 1
 62
   250
370
     9
100
AcDbVertex
100
AcDb2dVertex
 10
141.7657774546202
 20
-152.0876656554568
 30
0.0
  0
VERTEX
  5
F1
330
EE
100
AcDbEntity
  8
Capa 1
 62
   250
370
     9
100
AcDbVertex
100
AcDb2dVertex
 10
141.7657774546202
 20
-151.2498201217234
 30
0.0
  0
VERTEX
  5
F2
330
EE
100
AcDbEntity
  8
Capa 1
 62
   250
370
     9
100
AcDbVertex
100
AcDb2dVertex
 10
144.036779822378
 20
-151.2498201217234
 30
0.0
  0
VERTEX
  5
F3
330
EE
100
AcDbEntity
  8
Capa 1
 62
   250
370
     9
100
AcDbVertex
100
AcDb2dVertex
 10
144.036779822378
 20
-152.0876656554568
 30
0.0
  0
SEQEND
  5
F4
330
EE
100
AcDbEntity
  8
Capa 1
 62
   250
370
     9
  0
POLYLINE
  5
F5
330
1F
100
AcDbEntity
  8
Capa 1
 62
   250
370
     9
100
AcDb2dPolyline
 66
     1
 10
0.0
 20
0.0
 30
0.0
  0
VERTEX
  5
F6
330
F5
100
AcDbEntity
  8
Capa 1
 62
   250
370
     9
100
AcDbVertex
100
AcDb2dVertex
 10
158.8754651948007
 20
-152.0876656554568
 30
0.0
  0
VERTEX
  5
F7
330
F5
100
AcDbEntity
  8
Capa 1
 62
   250
370
     9
100
AcDbVertex
100
AcDb2dVertex
 10
156.6044628270429
 20
-152.0876656554568
 30
0.0
  0
VERTEX
  5
F8
330
F5
100
AcDbEntity
  8
Capa 1
 62
   250
370
     9
100
AcDbVertex
100
AcDb2dVertex
 10
156.6044628270429
 20
-151.2498201217234
 30
0.0
  0
VERTEX
  5
F9
330
F5
100
AcDbEntity
  8
Capa 1
 62
   250
370
     9
100
AcDbVertex
100
AcDb2dVertex
 10
158.8754651948007
 20
-151.2498201217234
 30
0.0
  0
VERTEX
  5
FA
330
F5
100
AcDbEntity
  8
Capa 1
 62
   250
370
     9
100
AcDbVertex
100
AcDb2dVertex
 10
158.8754651948007
 20
-152.0876656554568
 30
0.0
  0
SEQEND
  5
FB
330
F5
100
AcDbEntity
  8
Capa 1
 62
   250
370
     9
  0
POLYLINE
  5
FC
330
1F
100
AcDbEntity
  8
Capa 1
 62
   250
370
     9
100
AcDb2dPolyline
 66
     1
 10
0.0
 20
0.0
 30
0.0
  0
VERTEX
  5
FD
330
FC
100
AcDbEntity
  8
Capa 1
 62
   250
370
     9
100
AcDbVertex
100
AcDb2dVertex
 10
137.3781126858507
 20
-163.4206289275576
 30
0.0
  0
VERTEX
  5
FE
330
FC
100
AcDbEntity
  8
Capa 1
 62
   250
370
     9
100
AcDbVertex
100
AcDb2dVertex
 10
163.2190328315768
 20
-163.4206289275576
 30
0.0
  0
VERTEX
  5
FF
330
FC
100
AcDbEntity
  8
Capa 1
 62
   250
370
     9
100
AcDbVertex
100
AcDb2dVertex
 10
163.2190328315768
 20
-169.6383247305394
 30
0.0
  0
VERTEX
  5
100
330
FC
100
AcDbEntity
  8
Capa 1
 62
   250
370
     9
100
AcDbVertex
100
AcDb2dVertex
 10
161.6315360308152
 20
-169.6383247305394
 30
0.0
  0
VERTEX
  5
101
330
FC
100
AcDbEntity
  8
Capa 1
 62
   250
370
     9
100
AcDbVertex
100
AcDb2dVertex
 10
161.6315360308152
 20
-170.5202673976293
 30
0.0
  0
VERTEX
  5
102
330
FC
100
AcDbEntity
  8
Capa 1
 62
   250
370
     9
100
AcDbVertex
100
AcDb2dVertex
 10
164.1230240653435
 20
-173.011755432157
 30
0.0
  0
VERTEX
  5
103
330
FC
100
AcDbEntity
  8
Capa 1
 62
   250
370
     9
100
AcDbVertex
100
AcDb2dVertex
 10
172.9644993029172
 20
-173.011755432157
 30
0.0
  0
VERTEX
  5
104
330
FC
100
AcDbEntity
  8
Capa 1
 62
   250
370
     9
100
AcDbVertex
100
AcDb2dVertex
 10
172.9644993029172
 20
-177.5758087343464
 30
0.0
  0
VERTEX
  5
105
330
FC
100
AcDbEntity
  8
Capa 1
 62
   250
370
     9
100
AcDbVertex
100
AcDb2dVertex
 10
162.9985471648037
 20
-177.5758087343464
 30
0.0
  0
VERTEX
  5
106
330
FC
100
AcDbEntity
  8
Capa 1
 62
   250
370
     9
100
AcDbVertex
100
AcDb2dVertex
 10
162.1900997199703
 20
-176.7820603339649
 30
0.0
  0
VERTEX
  5
107
330
FC
100
AcDbEntity
  8
Capa 1
 62
   250
370
     9
100
AcDbVertex
100
AcDb2dVertex
 10
162.1900997199703
 20
-175.9883119335848
 30
0.0
  0
VERTEX
  5
108
330
FC
100
AcDbEntity
  8
Capa 1
 62
   250
370
     9
100
AcDbVertex
100
AcDb2dVertex
 10
162.7192653202255
 20
-175.9883119335848
 30
0.0
  0
VERTEX
  5
109
330
FC
100
AcDbEntity
  8
Capa 1
 62
   250
370
     9
100
AcDbVertex
100
AcDb2dVertex
 10
162.7192653202255
 20
-174.753592199659
 30
0.0
  0
VERTEX
  5
10A
330
FC
100
AcDbEntity
  8
Capa 1
 62
   250
370
     9
100
AcDbVertex
100
AcDb2dVertex
 10
138.1130649084238
 20
-174.753592199659
 30
0.0
  0
VERTEX
  5
10B
330
FC
100
AcDbEntity
  8
Capa 1
 62
   250
370
     9
100
AcDbVertex
100
AcDb2dVertex
 10
138.1130649084238
 20
-176.0177100224873
 30
0.0
  0
VERTEX
  5
10C
330
FC
100
AcDbEntity
  8
Capa 1
 62
   250
370
     9
100
AcDbVertex
100
AcDb2dVertex
 10
138.4952400641623
 20
-176.0177100224873
 30
0.0
  0
VERTEX
  5
10D
330
FC
100
AcDbEntity
  8
Capa 1
 62
   250
370
     9
100
AcDbVertex
100
AcDb2dVertex
 10
138.4952400641623
 20
-177.5758087343464
 30
0.0
  0
VERTEX
  5
10E
330
FC
100
AcDbEntity
  8
Capa 1
 62
   250
370
     9
100
AcDbVertex
100
AcDb2dVertex
 10
127.2651701032205
 20
-177.5758087343464
 30
0.0
  0
VERTEX
  5
10F
330
FC
100
AcDbEntity
  8
Capa 1
 62
   250
370
     9
100
AcDbVertex
100
AcDb2dVertex
 10
127.2651701032205
 20
-172.9603087765762
 30
0.0
  0
VERTEX
  5
110
330
FC
100
AcDbEntity
  8
Capa 1
 62
   250
370
     9
100
AcDbVertex
100
AcDb2dVertex
 10
136.6137623743711
 20
-172.9603087765762
 30
0.0
  0
VERTEX
  5
111
330
FC
100
AcDbEntity
  8
Capa 1
 62
   250
370
     9
100
AcDbVertex
100
AcDb2dVertex
 10
139.0832018422213
 20
-170.4982188309517
 30
0.0
  0
VERTEX
  5
112
330
FC
100
AcDbEntity
  8
Capa 1
 62
   250
370
     9
100
AcDbVertex
100
AcDb2dVertex
 10
139.0832018422213
 20
-169.5795285527324
 30
0.0
  0
VERTEX
  5
113
330
FC
100
AcDbEntity
  8
Capa 1
 62
   250
370
     9
100
AcDbVertex
100
AcDb2dVertex
 10
137.407510774752
 20
-169.5795285527324
 30
0.0
  0
VERTEX
  5
114
330
FC
100
AcDbEntity
  8
Capa 1
 62
   250
370
     9
100
AcDbVertex
100
AcDb2dVertex
 10
137.3781126858507
 20
-163.4206289275576
 30
0.0
  0
SEQEND
  5
115
330
FC
100
AcDbEntity
  8
Capa 1
 62
   250
370
     9
  0
POLYLINE
  5
116
330
1F
100
AcDbEntity
  8
Capa 1
 62
   250
370
     9
100
AcDb2dPolyline
 66
     1
 10
0.0
 20
0.0
 30
0.0
  0
VERTEX
  5
117
330
116
100
AcDbEntity
  8
Capa 1
 62
   250
370
     9
100
AcDbVertex
100
AcDb2dVertex
 10
133.4534678173017
 20
-172.9603087765762
 30
0.0
  0
VERTEX
  5
118
330
116
100
AcDbEntity
  8
Capa 1
 62
   250
370
     9
100
AcDbVertex
100
AcDb2dVertex
 10
133.4534678173017
 20
-177.5758087343464
 30
0.0
  0
SEQEND
  5
119
330
116
100
AcDbEntity
  8
Capa 1
 62
   250
370
     9
  0
POLYLINE
  5
11A
330
1F
100
AcDbEntity
  8
Capa 1
 62
   250
370
     9
100
AcDb2dPolyline
 66
     1
 10
0.0
 20
0.0
 30
0.0
  0
VERTEX
  5
11B
330
11A
100
AcDbEntity
  8
Capa 1
 62
   250
370
     9
100
AcDbVertex
100
AcDb2dVertex
 10
167.2759691001886
 20
-172.9603087765762
 30
0.0
  0
VERTEX
  5
11C
330
11A
100
AcDbEntity
  8
Capa 1
 62
   250
370
     9
100
AcDbVertex
100
AcDb2dVertex
 10
167.2759691001886
 20
-177.5758087343464
 30
0.0
  0
SEQEND
  5
11D
330
11A
100
AcDbEntity
  8
Capa 1
 62
   250
370
     9
  0
POLYLINE
  5
11E
330
1F
100
AcDbEntity
  8
Capa 1
 62
   250
370
     9
100
AcDb2dPolyline
 66
     1
 10
0.0
 20
0.0
 30
0.0
  0
VERTEX
  5
11F
330
11E
100
AcDbEntity
  8
Capa 1
 62
   250
370
     9
100
AcDbVertex
100
AcDb2dVertex
 10
136.6137623743711
 20
-172.9603087765762
 30
0.0
  0
VERTEX
  5
120
330
11E
100
AcDbEntity
  8
Capa 1
 62
   250
370
     9
100
AcDbVertex
100
AcDb2dVertex
 10
164.1230240653435
 20
-172.9603087765762
 30
0.0
  0
SEQEND
  5
121
330
11E
100
AcDbEntity
  8
Capa 1
 62
   250
370
     9
  0
POLYLINE
  5
122
330
1F
100
AcDbEntity
  8
Capa 1
 62
   250
370
     9
100
AcDb2dPolyline
 66
     1
 10
0.0
 20
0.0
 30
0.0
  0
VERTEX
  5
123
330
122
100
AcDbEntity
  8
Capa 1
 62
   250
370
     9
100
AcDbVertex
100
AcDb2dVertex
 10
140.9720290537042
 20
-163.4206289275576
 30
0.0
  0
VERTEX
  5
124
330
122
100
AcDbEntity
  8
Capa 1
 62
   250
370
     9
100
AcDbVertex
100
AcDb2dVertex
 10
140.9720290537042
 20
-172.9603087765762
 30
0.0
  0
SEQEND
  5
125
330
122
100
AcDbEntity
  8
Capa 1
 62
   250
370
     9
  0
POLYLINE
  5
126
330
1F
100
AcDbEntity
  8
Capa 1
 62
   250
370
     9
100
AcDb2dPolyline
 66
     1
 10
0.0
 20
0.0
 30
0.0
  0
VERTEX
  5
127
330
126
100
AcDbEntity
  8
Capa 1
 62
   250
370
     9
100
AcDbVertex
100
AcDb2dVertex
 10
159.6471650299959
 20
-163.4206289275576
 30
0.0
  0
VERTEX
  5
128
330
126
100
AcDbEntity
  8
Capa 1
 62
   250
370
     9
100
AcDbVertex
100
AcDb2dVertex
 10
159.6471650299959
 20
-172.9603087765762
 30
0.0
  0
SEQEND
  5
129
330
126
100
AcDbEntity
  8
Capa 1
 62
   250
370
     9
  0
POLYLINE
  5
12A
330
1F
100
AcDbEntity
  8
Capa 1
 62
   250
370
     9
100
AcDb2dPolyline
 66
     1
 10
0.0
 20
0.0
 30
0.0
  0
VERTEX
  5
12B
330
12A
100
AcDbEntity
  8
Capa 1
 62
   250
370
     9
100
AcDbVertex
100
AcDb2dVertex
 10
140.9720290537042
 20
-166.2281464177943
 30
0.0
  0
VERTEX
  5
12C
330
12A
100
AcDbEntity
  8
Capa 1
 62
   250
370
     9
100
AcDbVertex
100
AcDb2dVertex
 10
159.6471650299959
 20
-166.2281464177943
 30
0.0
  0
SEQEND
  5
12D
330
12A
100
AcDbEntity
  8
Capa 1
 62
   250
370
     9
  0
POLYLINE
  5
12E
330
1F
100
AcDbEntity
  8
Capa 1
 62
   250
370
     9
100
AcDb2dPolyline
 66
     1
 10
0.0
 20
0.0
 30
0.0
  0
VERTEX
  5
12F
330
12E
100
AcDbEntity
  8
Capa 1
 62
   250
370
     9
100
AcDbVertex
100
AcDb2dVertex
 10
139.3183814043153
 20
-174.7535881453307
 30
0.0
  0
VERTEX
  5
130
330
12E
100
AcDbEntity
  8
Capa 1
 62
   250
370
     9
100
AcDbVertex
100
AcDb2dVertex
 10
139.3183814043153
 20
-179.192701337309
 30
0.0
  0
VERTEX
  5
131
330
12E
100
AcDbEntity
  8
Capa 1
 62
   250
370
     9
100
AcDbVertex
100
AcDb2dVertex
 10
136.7901550187711
 20
-179.192701337309
 30
0.0
  0
VERTEX
  5
132
330
12E
100
AcDbEntity
  8
Capa 1
 62
   250
370
     9
100
AcDbVertex
100
AcDb2dVertex
 10
136.7901550187711
 20
-180.8683957813346
 30
0.0
  0
VERTEX
  5
133
330
12E
100
AcDbEntity
  8
Capa 1
 62
   250
370
     9
100
AcDbVertex
100
AcDb2dVertex
 10
139.3183814043153
 20
-180.8683957813346
 30
0.0
  0
VERTEX
  5
134
330
12E
100
AcDbEntity
  8
Capa 1
 62
   250
370
     9
100
AcDbVertex
100
AcDb2dVertex
 10
140.9720272372352
 20
-180.8683957813346
 30
0.0
  0
VERTEX
  5
135
330
12E
100
AcDbEntity
  8
Capa 1
 62
   250
370
     9
100
AcDbVertex
100
AcDb2dVertex
 10
140.9720272372352
 20
-179.192701337309
 30
0.0
  0
VERTEX
  5
136
330
12E
100
AcDbEntity
  8
Capa 1
 62
   250
370
     9
100
AcDbVertex
100
AcDb2dVertex
 10
140.9720272372352
 20
-174.7535881453307
 30
0.0
  0
VERTEX
  5
137
330
12E
100
AcDbEntity
  8
Capa 1
 62
   250
370
     9
100
AcDbVertex
100
AcDb2dVertex
 10
139.3183814043153
 20
-174.7535881453307
 30
0.0
  0
SEQEND
  5
138
330
12E
100
AcDbEntity
  8
Capa 1
 62
   250
370
     9
  0
POLYLINE
  5
139
330
1F
100
AcDbEntity
  8
Capa 1
 62
   250
370
     9
100
AcDb2dPolyline
 66
     1
 10
0.0
 20
0.0
 30
0.0
  0
VERTEX
  5
13A
330
139
100
AcDbEntity
  8
Capa 1
 62
   250
370
     9
100
AcDbVertex
100
AcDb2dVertex
 10
161.3008108631905
 20
-174.7535881453115
 30
0.0
  0
VERTEX
  5
13B
330
139
100
AcDbEntity
  8
Capa 1
 62
   250
370
     9
100
AcDbVertex
100
AcDb2dVertex
 10
161.3008108629916
 20
-179.1927013372898
 30
0.0
  0
VERTEX
  5
13C
330
139
100
AcDbEntity
  8
Capa 1
 62
   250
370
     9
100
AcDbVertex
100
AcDb2dVertex
 10
163.8290372485357
 20
-179.1927013374034
 30
0.0
  0
VERTEX
  5
13D
330
139
100
AcDbEntity
  8
Capa 1
 62
   250
370
     9
100
AcDbVertex
100
AcDb2dVertex
 10
163.82903724846
 20
-180.8683957814289
 30
0.0
  0
VERTEX
  5
13E
330
139
100
AcDbEntity
  8
Capa 1
 62
   250
370
     9
100
AcDbVertex
100
AcDb2dVertex
 10
161.3008108629159
 20
-180.8683957813153
 30
0.0
  0
VERTEX
  5
13F
330
139
100
AcDbEntity
  8
Capa 1
 62
   250
370
     9
100
AcDbVertex
100
AcDb2dVertex
 10
159.6471650299959
 20
-180.8683957812409
 30
0.0
  0
VERTEX
  5
140
330
139
100
AcDbEntity
  8
Capa 1
 62
   250
370
     9
100
AcDbVertex
100
AcDb2dVertex
 10
159.6471650300716
 20
-179.1927013372153
 30
0.0
  0
VERTEX
  5
141
330
139
100
AcDbEntity
  8
Capa 1
 62
   250
370
     9
100
AcDbVertex
100
AcDb2dVertex
 10
159.6471650302706
 20
-174.753588145237
 30
0.0
  0
VERTEX
  5
142
330
139
100
AcDbEntity
  8
Capa 1
 62
   250
370
     9
100
AcDbVertex
100
AcDb2dVertex
 10
161.3008108631905
 20
-174.7535881453115
 30
0.0
  0
SEQEND
  5
143
330
139
100
AcDbEntity
  8
Capa 1
 62
   250
370
     9
  0
POLYLINE
  5
144
330
1F
100
AcDbEntity
  8
Capa 1
 62
   250
370
     9
100
AcDb2dPolyline
 66
     1
 10
0.0
 20
0.0
 30
0.0
  0
VERTEX
  5
145
330
144
100
AcDbEntity
  8
Capa 1
 62
   250
370
     9
100
AcDbVertex
100
AcDb2dVertex
 10
139.0832018422213
 20
-169.5795285527324
 30
0.0
  0
VERTEX
  5
146
330
144
100
AcDbEntity
  8
Capa 1
 62
   250
370
     9
100
AcDbVertex
100
AcDb2dVertex
 10
139.0832018422213
 20
-163.4206289275576
 30
0.0
  0
SEQEND
  5
147
330
144
100
AcDbEntity
  8
Capa 1
 62
   250
370
     9
  0
POLYLINE
  5
148
330
1F
100
AcDbEntity
  8
Capa 1
 62
   250
370
     9
100
AcDb2dPolyline
 66
     1
 10
0.0
 20
0.0
 30
0.0
  0
VERTEX
  5
149
330
148
100
AcDbEntity
  8
Capa 1
 62
   250
370
     9
100
AcDbVertex
100
AcDb2dVertex
 10
161.6315360308152
 20
-169.6383247305394
 30
0.0
  0
VERTEX
  5
14A
330
148
100
AcDbEntity
  8
Capa 1
 62
   250
370
     9
100
AcDbVertex
100
AcDb2dVertex
 10
161.6315360308152
 20
-163.4206289275576
 30
0.0
  0
SEQEND
  5
14B
330
148
100
AcDbEntity
  8
Capa 1
 62
   250
370
     9
  0
POLYLINE
  5
14C
330
1F
100
AcDbEntity
  8
Capa 1
 62
   250
370
     9
100
AcDb2dPolyline
 66
     1
 10
0.0
 20
0.0
 30
0.0
  0
VERTEX
  5
14D
330
14C
100
AcDbEntity
  8
Capa 1
 62
   250
370
     9
100
AcDbVertex
100
AcDb2dVertex
 10
161.4551474973972
 20
-163.4206289275576
 30
0.0
  0
VERTEX
  5
14E
330
14C
100
AcDbEntity
  8
Capa 1
 62
   250
370
     9
100
AcDbVertex
100
AcDb2dVertex
 10
139.2889884645444
 20
-163.4206289275576
 30
0.0
  0
VERTEX
  5
14F
330
14C
100
AcDbEntity
  8
Capa 1
 62
   250
370
     9
100
AcDbVertex
100
AcDb2dVertex
 10
139.2889884645444
 20
-162.8032690605973
 30
0.0
  0
VERTEX
  5
150
330
14C
100
AcDbEntity
  8
Capa 1
 62
   250
370
     9
100
AcDbVertex
100
AcDb2dVertex
 10
161.4551474973972
 20
-162.8032690605973
 30
0.0
  0
VERTEX
  5
151
330
14C
100
AcDbEntity
  8
Capa 1
 62
   250
370
     9
100
AcDbVertex
100
AcDb2dVertex
 10
161.4551474973972
 20
-163.4206289275576
 30
0.0
  0
SEQEND
  5
152
330
14C
100
AcDbEntity
  8
Capa 1
 62
   250
370
     9
  0
INSERT
  5
154
330
1F
100
AcDbEntity
  8
Capa 1
100
AcDbBlockReference
  2
block 4
 10
0.0
 20
0.0
 30
0.0
  0
INSERT
  5
1BA
330
1F
100
AcDbEntity
  8
Capa 1
100
AcDbBlockReference
  2
block 5
 10
0.0
 20
0.0
 30
0.0
  0
INSERT
  5
1DB
330
1F
100
AcDbEntity
  8
Capa 1
100
AcDbBlockReference
  2
block 6
 10
0.0
 20
0.0
 30
0.0
  0
INSERT
  5
1FC
330
1F
100
AcDbEntity
  8
Capa 1
100
AcDbBlockReference
  2
block 7
 10
0.0
 20
0.0
 30
0.0
  0
SPLINE
  5
21C
330
1F
100
AcDbEntity
  8
Capa 1
 62
   250
370
     9
100
AcDbSpline
210
0.0
220
0.0
230
1.0
 70
     8
 71
     3
 72
    32
 73
    28
 74
     0
 42
0.0000000001
 43
0.0000000001
 12
1.0
 22
0.0
 32
0.0
 13
1.0
 23
0.0
 33
0.0
 40
0.0
 40
0.0
 40
0.0
 40
0.0
 40
1.0
 40
1.0
 40
1.0
 40
2.0
 40
2.0
 40
2.0
 40
3.0
 40
3.0
 40
3.0
 40
4.0
 40
4.0
 40
4.0
 40
5.0
 40
5.0
 40
5.0
 40
6.0
 40
6.0
 40
6.0
 40
7.0
 40
7.0
 40
7.0
 40
8.0
 40
8.0
 40
8.0
 40
9.0
 40
9.0
 40
9.0
 40
9.0
 10
90.98793834888718
 20
-111.5477010582374
 30
0.0
 10
90.98793834888718
 20
-111.5477010582374
 30
0.0
 10
101.6888427095764
 20
-111.5477010582374
 30
0.0
 10
101.6888427095764
 20
-111.5477010582374
 30
0.0
 10
101.6888427095764
 20
-111.5477010582374
 30
0.0
 10
102.1446144624052
 20
-111.9305095963294
 30
0.0
 10
102.1446144624052
 20
-111.9305095963294
 30
0.0
 10
102.1446144624052
 20
-111.9305095963294
 30
0.0
 10
102.1464468281279
 20
-111.9331633645469
 30
0.0
 10
102.1464468281279
 20
-111.9331633645469
 30
0.0
 10
101.6692968441139
 20
-112.0310317166362
 30
0.0
 10
101.3618283311865
 20
-112.4971761798168
 30
0.0
 10
101.4596966832759
 20
-112.9743261638312
 30
0.0
 10
101.5575650353653
 20
-113.4514761478448
 30
0.0
 10
102.0237094985456
 20
-113.7589446607722
 30
0.0
 10
102.5008594825595
 20
-113.6610763086832
 30
0.0
 10
102.9780094665735
 20
-113.5632079565938
 30
0.0
 10
103.2967452426312
 20
-113.1068373497017
 30
0.0
 10
103.164958133703
 20
-112.5962581658936
 30
0.0
 10
103.164958133703
 20
-112.5962581658936
 30
0.0
 10
113.4774763596746
 20
-118.2798634170215
 30
0.0
 10
113.4774763596746
 20
-118.2798634170215
 30
0.0
 10
113.4774763596746
 20
-118.2798634170215
 30
0.0
 10
113.4774763596746
 20
-124.8944346806607
 30
0.0
 10
113.4774763596746
 20
-124.8944346806607
 30
0.0
 10
113.4774763596746
 20
-124.8944346806607
 30
0.0
 10
93.41328139423717
 20
-124.8944346806607
 30
0.0
 10
93.41328139423717
 20
-124.8944346806607
 30
0.0
  0
INSERT
  5
21E
330
1F
100
AcDbEntity
  8
Capa 1
100
AcDbBlockReference
  2
block 8
 10
0.0
 20
0.0
 30
0.0
  0
SPLINE
  5
226
330
1F
100
AcDbEntity
  8
Capa 1
 62
   250
370
     9
100
AcDbSpline
210
0.0
220
0.0
230
1.0
 70
     8
 71
     3
 72
    32
 73
    28
 74
     0
 42
0.0000000001
 43
0.0000000001
 12
1.0
 22
0.0
 32
0.0
 13
1.0
 23
0.0
 33
0.0
 40
0.0
 40
0.0
 40
0.0
 40
0.0
 40
1.0
 40
1.0
 40
1.0
 40
2.0
 40
2.0
 40
2.0
 40
3.0
 40
3.0
 40
3.0
 40
4.0
 40
4.0
 40
4.0
 40
5.0
 40
5.0
 40
5.0
 40
6.0
 40
6.0
 40
6.0
 40
7.0
 40
7.0
 40
7.0
 40
8.0
 40
8.0
 40
8.0
 40
9.0
 40
9.0
 40
9.0
 40
9.0
 10
81.63934607773783
 20
-111.5477010587421
 30
0.0
 10
81.63934607773783
 20
-111.5477010587421
 30
0.0
 10
70.93844171704862
 20
-111.5477010582618
 30
0.0
 10
70.93844171704862
 20
-111.5477010582618
 30
0.0
 10
70.93844171704862
 20
-111.5477010582618
 30
0.0
 10
70.4826699642031
 20
-111.930509596333
 30
0.0
 10
70.4826699642031
 20
-111.930509596333
 30
0.0
 10
70.4826699642031
 20
-111.930509596333
 30
0.0
 10
70.48083759847911
 20
-111.9331633645507
 30
0.0
 10
70.48083759847911
 20
-111.9331633645507
 30
0.0
 10
70.95798758248927
 20
-112.0310317166616
 30
0.0
 10
71.26545609539485
 20
-112.497176179856
 30
0.0
 10
71.16758774328461
 20
-112.9743261638655
 30
0.0
 10
71.06971939117375
 20
-113.451476147875
 30
0.0
 10
70.60357492797935
 20
-113.7589446607815
 30
0.0
 10
70.12642494397049
 20
-113.6610763086713
 30
0.0
 10
69.64927495996035
 20
-113.5632079565604
 30
0.0
 10
69.33053918392326
 20
-113.1068373496539
 30
0.0
 10
69.46232629287448
 20
-112.5962581658519
 30
0.0
 10
69.46232629287448
 20
-112.5962581658519
 30
0.0
 10
59.14980806664877
 20
-118.2798634165168
 30
0.0
 10
59.14980806664877
 20
-118.2798634165168
 30
0.0
 10
59.14980806664877
 20
-118.2798634165168
 30
0.0
 10
59.14980806635103
 20
-124.894434680156
 30
0.0
 10
59.14980806635103
 20
-124.894434680156
 30
0.0
 10
59.14980806635103
 20
-124.894434680156
 30
0.0
 10
79.2140030317885
 20
-124.8944346810566
 30
0.0
 10
79.2140030317885
 20
-124.8944346810566
 30
0.0
  0
INSERT
  5
228
330
1F
100
AcDbEntity
  8
Capa 1
100
AcDbBlockReference
  2
block 9
 10
0.0
 20
0.0
 30
0.0
  0
POLYLINE
  5
23D
330
1F
100
AcDbEntity
  8
Capa 1
 62
   250
370
     9
100
AcDb2dPolyline
 66
     1
 10
0.0
 20
0.0
 30
0.0
  0
VERTEX
  5
23E
330
23D
100
AcDbEntity
  8
Capa 1
 62
   250
370
     9
100
AcDbVertex
100
AcDb2dVertex
 10
81.63934607712436
 20
-125.4676973572974
 30
0.0
  0
VERTEX
  5
23F
330
23D
100
AcDbEntity
  8
Capa 1
 62
   250
370
     9
100
AcDbVertex
100
AcDb2dVertex
 10
59.14980806664877
 20
-125.4676973572974
 30
0.0
  0
VERTEX
  5
240
330
23D
100
AcDbEntity
  8
Capa 1
 62
   250
370
     9
100
AcDbVertex
100
AcDb2dVertex
 10
59.14980806664877
 20
-134.5494519621239
 30
0.0
  0
SEQEND
  5
241
330
23D
100
AcDbEntity
  8
Capa 1
 62
   250
370
     9
  0
POLYLINE
  5
242
330
1F
100
AcDbEntity
  8
Capa 1
 62
   250
370
     9
100
AcDb2dPolyline
 66
     1
 10
0.0
 20
0.0
 30
0.0
  0
VERTEX
  5
243
330
242
100
AcDbEntity
  8
Capa 1
 62
   250
370
     9
100
AcDbVertex
100
AcDb2dVertex
 10
90.98793834904376
 20
-125.4676973567927
 30
0.0
  0
VERTEX
  5
244
330
242
100
AcDbEntity
  8
Capa 1
 62
   250
370
     9
100
AcDbVertex
100
AcDb2dVertex
 10
113.4774763595181
 20
-125.4676973578025
 30
0.0
  0
VERTEX
  5
245
330
242
100
AcDbEntity
  8
Capa 1
 62
   250
370
     9
100
AcDbVertex
100
AcDb2dVertex
 10
113.4774763591112
 20
-134.549451962629
 30
0.0
  0
SEQEND
  5
246
330
242
100
AcDbEntity
  8
Capa 1
 62
   250
370
     9
  0
POLYLINE
  5
247
330
1F
100
AcDbEntity
  8
Capa 1
 62
   250
370
     9
100
AcDb2dPolyline
 66
     1
 10
0.0
 20
0.0
 30
0.0
  0
VERTEX
  5
248
330
247
100
AcDbEntity
  8
Capa 1
 62
   250
370
     9
100
AcDbVertex
100
AcDb2dVertex
 10
59.14980806664877
 20
-143.8980442348551
 30
0.0
  0
VERTEX
  5
249
330
247
100
AcDbEntity
  8
Capa 1
 62
   250
370
     9
100
AcDbVertex
100
AcDb2dVertex
 10
59.14980806664877
 20
-151.2498201217234
 30
0.0
  0
VERTEX
  5
24A
330
247
100
AcDbEntity
  8
Capa 1
 62
   250
370
     9
100
AcDbVertex
100
AcDb2dVertex
 10
79.43448941001331
 20
-151.2498201217234
 30
0.0
  0
VERTEX
  5
24B
330
247
100
AcDbEntity
  8
Capa 1
 62
   250
370
     9
100
AcDbVertex
100
AcDb2dVertex
 10
79.43448941001331
 20
-130.7005559785339
 30
0.0
  0
VERTEX
  5
24C
330
247
100
AcDbEntity
  8
Capa 1
 62
   250
370
     9
100
AcDbVertex
100
AcDb2dVertex
 10
93.7440091835438
 20
-130.7005559785339
 30
0.0
  0
VERTEX
  5
24D
330
247
100
AcDbEntity
  8
Capa 1
 62
   250
370
     9
100
AcDbVertex
100
AcDb2dVertex
 10
93.7440091835438
 20
-151.2498201217234
 30
0.0
  0
VERTEX
  5
24E
330
247
100
AcDbEntity
  8
Capa 1
 62
   250
370
     9
100
AcDbVertex
100
AcDb2dVertex
 10
113.4774763595181
 20
-151.2498201217234
 30
0.0
  0
VERTEX
  5
24F
330
247
100
AcDbEntity
  8
Capa 1
 62
   250
370
     9
100
AcDbVertex
100
AcDb2dVertex
 10
113.4774763595181
 20
-143.8980442470503
 30
0.0
  0
SEQEND
  5
250
330
247
100
AcDbEntity
  8
Capa 1
 62
   250
370
     9
  0
POLYLINE
  5
251
330
1F
100
AcDbEntity
  8
Capa 1
 62
   250
370
     9
100
AcDb2dPolyline
 66
     1
 10
0.0
 20
0.0
 30
0.0
  0
VERTEX
  5
252
330
251
100
AcDbEntity
  8
Capa 1
 62
   250
370
     9
100
AcDbVertex
100
AcDb2dVertex
 10
81.63934607712436
 20
-177.5758087343464
 30
0.0
  0
VERTEX
  5
253
330
251
100
AcDbEntity
  8
Capa 1
 62
   250
370
     9
100
AcDbVertex
100
AcDb2dVertex
 10
69.30196877048773
 20
-177.5758087343464
 30
0.0
  0
VERTEX
  5
254
330
251
100
AcDbEntity
  8
Capa 1
 62
   250
370
     9
100
AcDbVertex
100
AcDb2dVertex
 10
69.30196877048773
 20
-171.6667928648447
 30
0.0
  0
VERTEX
  5
255
330
251
100
AcDbEntity
  8
Capa 1
 62
   250
370
     9
100
AcDbVertex
100
AcDb2dVertex
 10
59.14980806664877
 20
-166.2281464177943
 30
0.0
  0
VERTEX
  5
256
330
251
100
AcDbEntity
  8
Capa 1
 62
   250
370
     9
100
AcDbVertex
100
AcDb2dVertex
 10
59.14980806664877
 20
-152.0876656554568
 30
0.0
  0
VERTEX
  5
257
330
251
100
AcDbEntity
  8
Capa 1
 62
   250
370
     9
100
AcDbVertex
100
AcDb2dVertex
 10
113.4774763595181
 20
-152.0876656554568
 30
0.0
  0
VERTEX
  5
258
330
251
100
AcDbEntity
  8
Capa 1
 62
   250
370
     9
100
AcDbVertex
100
AcDb2dVertex
 10
113.4774763595181
 20
-166.1105540621802
 30
0.0
  0
VERTEX
  5
259
330
251
100
AcDbEntity
  8
Capa 1
 62
   250
370
     9
100
AcDbVertex
100
AcDb2dVertex
 10
103.2028442880803
 20
-171.6667928648447
 30
0.0
  0
VERTEX
  5
25A
330
251
100
AcDbEntity
  8
Capa 1
 62
   250
370
     9
100
AcDbVertex
100
AcDb2dVertex
 10
103.2028442880803
 20
-177.5758087343464
 30
0.0
  0
VERTEX
  5
25B
330
251
100
AcDbEntity
  8
Capa 1
 62
   250
370
     9
100
AcDbVertex
100
AcDb2dVertex
 10
90.98793834949937
 20
-177.5758087343464
 30
0.0
  0
SEQEND
  5
25C
330
251
100
AcDbEntity
  8
Capa 1
 62
   250
370
     9
  0
SPLINE
  5
25D
330
1F
100
AcDbEntity
  8
Capa 1
 62
   250
370
     9
100
AcDbSpline
210
0.0
220
0.0
230
1.0
 70
    11
 71
     3
 72
    17
 73
    13
 74
     0
 42
0.0000000001
 43
0.0000000001
 12
1.0
 22
0.0
 32
0.0
 13
1.0
 23
0.0
 33
0.0
 40
0.0
 40
0.0
 40
0.0
 40
0.0
 40
1.0
 40
1.0
 40
1.0
 40
2.0
 40
2.0
 40
2.0
 40
3.0
 40
3.0
 40
3.0
 40
4.0
 40
4.0
 40
4.0
 40
4.0
 10
63.3684338245985
 20
-155.3508535236904
 30
0.0
 10
63.3684338245985
 20
-154.547165773022
 30
0.0
 10
62.71691617450234
 20
-153.8956481229268
 30
0.0
 10
61.9132284238339
 20
-153.8956481229268
 30
0.0
 10
61.10954067316547
 20
-153.8956481229268
 30
0.0
 10
60.45802302306963
 20
-154.547165773022
 30
0.0
 10
60.45802302306963
 20
-155.3508535236904
 30
0.0
 10
60.45802302306963
 20
-156.1545412743595
 30
0.0
 10
61.10954067316547
 20
-156.8060589244547
 30
0.0
 10
61.9132284238339
 20
-156.8060589244547
 30
0.0
 10
62.71691617450234
 20
-156.8060589244547
 30
0.0
 10
63.3684338245985
 20
-156.1545412743595
 30
0.0
 10
63.3684338245985
 20
-155.3508535236904
 30
0.0
  0
POLYLINE
  5
25E
330
1F
100
AcDbEntity
  8
Capa 1
 62
   250
370
     9
100
AcDb2dPolyline
 66
     1
 10
0.0
 20
0.0
 30
0.0
  0
VERTEX
  5
25F
330
25E
100
AcDbEntity
  8
Capa 1
 62
   250
370
     9
100
AcDbVertex
100
AcDb2dVertex
 10
111.7356395921719
 20
-149.5079833542208
 30
0.0
  0
VERTEX
  5
260
330
25E
100
AcDbEntity
  8
Capa 1
 62
   250
370
     9
100
AcDbVertex
100
AcDb2dVertex
 10
108.9575201908397
 20
-149.5079833542208
 30
0.0
  0
VERTEX
  5
261
330
25E
100
AcDbEntity
  8
Capa 1
 62
   250
370
     9
100
AcDbVertex
100
AcDb2dVertex
 10
108.9575201908397
 20
-147.2369809864645
 30
0.0
  0
VERTEX
  5
262
330
25E
100
AcDbEntity
  8
Capa 1
 62
   250
370
     9
100
AcDbVertex
100
AcDb2dVertex
 10
111.7356395921719
 20
-147.2369809864645
 30
0.0
  0
VERTEX
  5
263
330
25E
100
AcDbEntity
  8
Capa 1
 62
   250
370
     9
100
AcDbVertex
100
AcDb2dVertex
 10
111.7356395921719
 20
-149.5079833542208
 30
0.0
  0
SEQEND
  5
264
330
25E
100
AcDbEntity
  8
Capa 1
 62
   250
370
     9
  0
POLYLINE
  5
265
330
1F
100
AcDbEntity
  8
Capa 1
 62
   250
370
     9
100
AcDb2dPolyline
 66
     1
 10
0.0
 20
0.0
 30
0.0
  0
VERTEX
  5
266
330
265
100
AcDbEntity
  8
Capa 1
 62
   250
370
     9
100
AcDbVertex
100
AcDb2dVertex
 10
108.9575201908397
 20
-147.7220494533639
 30
0.0
  0
VERTEX
  5
267
330
265
100
AcDbEntity
  8
Capa 1
 62
   250
370
     9
100
AcDbVertex
100
AcDb2dVertex
 10
111.7356395921719
 20
-147.7220494533639
 30
0.0
  0
SEQEND
  5
268
330
265
100
AcDbEntity
  8
Capa 1
 62
   250
370
     9
  0
POLYLINE
  5
269
330
1F
100
AcDbEntity
  8
Capa 1
 62
   250
370
     9
100
AcDb2dPolyline
 66
     1
 10
0.0
 20
0.0
 30
0.0
  0
VERTEX
  5
26A
330
269
100
AcDbEntity
  8
Capa 1
 62
   250
370
     9
100
AcDbVertex
100
AcDb2dVertex
 10
113.4774763595181
 20
-145.6053870523487
 30
0.0
  0
VERTEX
  5
26B
330
269
100
AcDbEntity
  8
Capa 1
 62
   250
370
     9
100
AcDbVertex
100
AcDb2dVertex
 10
118.1297239285711
 20
-145.6053870523487
 30
0.0
  0
VERTEX
  5
26C
330
269
100
AcDbEntity
  8
Capa 1
 62
   250
370
     9
100
AcDbVertex
100
AcDb2dVertex
 10
118.1297239285711
 20
-148.6921863871627
 30
0.0
  0
VERTEX
  5
26D
330
269
100
AcDbEntity
  8
Capa 1
 62
   250
370
     9
100
AcDbVertex
100
AcDb2dVertex
 10
116.1233043609428
 20
-149.5079833542208
 30
0.0
  0
VERTEX
  5
26E
330
269
100
AcDbEntity
  8
Capa 1
 62
   250
370
     9
100
AcDbVertex
100
AcDb2dVertex
 10
113.4774763595181
 20
-149.5079833542208
 30
0.0
  0
VERTEX
  5
26F
330
269
100
AcDbEntity
  8
Capa 1
 62
   250
370
     9
100
AcDbVertex
100
AcDb2dVertex
 10
113.4774763595181
 20
-145.6053870523487
 30
0.0
  0
SEQEND
  5
270
330
269
100
AcDbEntity
  8
Capa 1
 62
   250
370
     9
  0
POLYLINE
  5
271
330
1F
100
AcDbEntity
  8
Capa 1
 62
   250
370
     9
100
AcDb2dPolyline
 66
     1
 10
0.0
 20
0.0
 30
0.0
  0
VERTEX
  5
272
330
271
100
AcDbEntity
  8
Capa 1
 62
   250
370
     9
100
AcDbVertex
100
AcDb2dVertex
 10
109.2662001243205
 20
-152.0876656554568
 30
0.0
  0
VERTEX
  5
273
330
271
100
AcDbEntity
  8
Capa 1
 62
   250
370
     9
100
AcDbVertex
100
AcDb2dVertex
 10
109.2662001243205
 20
-151.2498201217234
 30
0.0
  0
VERTEX
  5
274
330
271
100
AcDbEntity
  8
Capa 1
 62
   250
370
     9
100
AcDbVertex
100
AcDb2dVertex
 10
115.219313127176
 20
-151.2498201217234
 30
0.0
  0
VERTEX
  5
275
330
271
100
AcDbEntity
  8
Capa 1
 62
   250
370
     9
100
AcDbVertex
100
AcDb2dVertex
 10
115.219313127176
 20
-161.4362579266081
 30
0.0
  0
VERTEX
  5
276
330
271
100
AcDbEntity
  8
Capa 1
 62
   250
370
     9
100
AcDbVertex
100
AcDb2dVertex
 10
113.4774763595181
 20
-161.4362579266081
 30
0.0
  0
VERTEX
  5
277
330
271
100
AcDbEntity
  8
Capa 1
 62
   250
370
     9
100
AcDbVertex
100
AcDb2dVertex
 10
113.4774763595181
 20
-152.0876656554568
 30
0.0
  0
VERTEX
  5
278
330
271
100
AcDbEntity
  8
Capa 1
 62
   250
370
     9
100
AcDbVertex
100
AcDb2dVertex
 10
109.2662001243205
 20
-152.0876656554568
 30
0.0
  0
SEQEND
  5
279
330
271
100
AcDbEntity
  8
Capa 1
 62
   250
370
     9
  0
POLYLINE
  5
27A
330
1F
100
AcDbEntity
  8
Capa 1
 62
   250
370
     9
100
AcDb2dPolyline
 66
     1
 10
0.0
 20
0.0
 30
0.0
  0
VERTEX
  5
27B
330
27A
100
AcDbEntity
  8
Capa 1
 62
   250
370
     9
100
AcDbVertex
100
AcDb2dVertex
 10
112.7278250926477
 20
-154.7775907900814
 30
0.0
  0
VERTEX
  5
27C
330
27A
100
AcDbEntity
  8
Capa 1
 62
   250
370
     9
100
AcDbVertex
100
AcDb2dVertex
 10
111.7356395921719
 20
-154.7775907900814
 30
0.0
  0
VERTEX
  5
27D
330
27A
100
AcDbEntity
  8
Capa 1
 62
   250
370
     9
100
AcDbVertex
100
AcDb2dVertex
 10
111.7356395921719
 20
-153.2121425559973
 30
0.0
  0
VERTEX
  5
27E
330
27A
100
AcDbEntity
  8
Capa 1
 62
   250
370
     9
100
AcDbVertex
100
AcDb2dVertex
 10
112.7278250926477
 20
-153.2121425559973
 30
0.0
  0
VERTEX
  5
27F
330
27A
100
AcDbEntity
  8
Capa 1
 62
   250
370
     9
100
AcDbVertex
100
AcDb2dVertex
 10
112.7278250926477
 20
-154.7775907900814
 30
0.0
  0
SEQEND
  5
280
330
27A
100
AcDbEntity
  8
Capa 1
 62
   250
370
     9
  0
POLYLINE
  5
281
330
1F
100
AcDbEntity
  8
Capa 1
 62
   250
370
     9
100
AcDb2dPolyline
 66
     1
 10
0.0
 20
0.0
 30
0.0
  0
VERTEX
  5
282
330
281
100
AcDbEntity
  8
Capa 1
 62
   250
370
     9
100
AcDbVertex
100
AcDb2dVertex
 10
112.7278250926477
 20
-158.3053614584393
 30
0.0
  0
VERTEX
  5
283
330
281
100
AcDbEntity
  8
Capa 1
 62
   250
370
     9
100
AcDbVertex
100
AcDb2dVertex
 10
111.7356395921719
 20
-158.3053614584393
 30
0.0
  0
VERTEX
  5
284
330
281
100
AcDbEntity
  8
Capa 1
 62
   250
370
     9
100
AcDbVertex
100
AcDb2dVertex
 10
111.7356395921719
 20
-156.7399132243552
 30
0.0
  0
VERTEX
  5
285
330
281
100
AcDbEntity
  8
Capa 1
 62
   250
370
     9
100
AcDbVertex
100
AcDb2dVertex
 10
112.7278250926477
 20
-156.7399132243552
 30
0.0
  0
VERTEX
  5
286
330
281
100
AcDbEntity
  8
Capa 1
 62
   250
370
     9
100
AcDbVertex
100
AcDb2dVertex
 10
112.7278250926477
 20
-158.3053614584393
 30
0.0
  0
SEQEND
  5
287
330
281
100
AcDbEntity
  8
Capa 1
 62
   250
370
     9
  0
POLYLINE
  5
288
330
1F
100
AcDbEntity
  8
Capa 1
 62
   250
370
     9
100
AcDb2dPolyline
 66
     1
 10
0.0
 20
0.0
 30
0.0
  0
VERTEX
  5
289
330
288
100
AcDbEntity
  8
Capa 1
 62
   250
370
     9
100
AcDbVertex
100
AcDb2dVertex
 10
112.7278250926477
 20
-161.6111822973935
 30
0.0
  0
VERTEX
  5
28A
330
288
100
AcDbEntity
  8
Capa 1
 62
   250
370
     9
100
AcDbVertex
100
AcDb2dVertex
 10
111.7356395921719
 20
-161.6111822973935
 30
0.0
  0
VERTEX
  5
28B
330
288
100
AcDbEntity
  8
Capa 1
 62
   250
370
     9
100
AcDbVertex
100
AcDb2dVertex
 10
111.7356395921719
 20
-160.04573406331
 30
0.0
  0
VERTEX
  5
28C
330
288
100
AcDbEntity
  8
Capa 1
 62
   250
370
     9
100
AcDbVertex
100
AcDb2dVertex
 10
112.7278250926477
 20
-160.04573406331
 30
0.0
  0
VERTEX
  5
28D
330
288
100
AcDbEntity
  8
Capa 1
 62
   250
370
     9
100
AcDbVertex
100
AcDb2dVertex
 10
112.7278250926477
 20
-161.6111822973935
 30
0.0
  0
SEQEND
  5
28E
330
288
100
AcDbEntity
  8
Capa 1
 62
   250
370
     9
  0
POLYLINE
  5
28F
330
1F
100
AcDbEntity
  8
Capa 1
 62
   250
370
     9
100
AcDb2dPolyline
 66
     1
 10
0.0
 20
0.0
 30
0.0
  0
VERTEX
  5
290
330
28F
100
AcDbEntity
  8
Capa 1
 62
   250
370
     9
100
AcDbVertex
100
AcDb2dVertex
 10
94.78029181737335
 20
-151.2498201217234
 30
0.0
  0
VERTEX
  5
291
330
28F
100
AcDbEntity
  8
Capa 1
 62
   250
370
     9
100
AcDbVertex
100
AcDb2dVertex
 10
94.78029181737335
 20
-152.0876656554568
 30
0.0
  0
SEQEND
  5
292
330
28F
100
AcDbEntity
  8
Capa 1
 62
   250
370
     9
  0
POLYLINE
  5
293
330
1F
100
AcDbEntity
  8
Capa 1
 62
   250
370
     9
100
AcDb2dPolyline
 66
     1
 10
0.0
 20
0.0
 30
0.0
  0
VERTEX
  5
294
330
293
100
AcDbEntity
  8
Capa 1
 62
   250
370
     9
100
AcDbVertex
100
AcDb2dVertex
 10
108.5385974239717
 20
-151.2498201217234
 30
0.0
  0
VERTEX
  5
295
330
293
100
AcDbEntity
  8
Capa 1
 62
   250
370
     9
100
AcDbVertex
100
AcDb2dVertex
 10
108.5385974239717
 20
-152.0876656554568
 30
0.0
  0
SEQEND
  5
296
330
293
100
AcDbEntity
  8
Capa 1
 62
   250
370
     9
  0
INSERT
  5
298
330
1F
100
AcDbEntity
  8
Capa 1
100
AcDbBlockReference
  2
block 11
 10
0.0
 20
0.0
 30
0.0
  0
POLYLINE
  5
2AA
330
1F
100
AcDbEntity
  8
Capa 1
 62
   250
370
     9
100
AcDb2dPolyline
 66
     1
 10
0.0
 20
0.0
 30
0.0
  0
VERTEX
  5
2AB
330
2AA
100
AcDbEntity
  8
Capa 1
 62
   250
370
     9
100
AcDbVertex
100
AcDb2dVertex
 10
79.45412947432668
 20
-152.0876656554568
 30
0.0
  0
VERTEX
  5
2AC
330
2AA
100
AcDbEntity
  8
Capa 1
 62
   250
370
     9
100
AcDbVertex
100
AcDb2dVertex
 10
79.45412947432668
 20
-162.8473661939492
 30
0.0
  0
VERTEX
  5
2AD
330
2AA
100
AcDbEntity
  8
Capa 1
 62
   250
370
     9
100
AcDbVertex
100
AcDb2dVertex
 10
59.14980806664877
 20
-162.8473661939492
 30
0.0
  0
SEQEND
  5
2AE
330
2AA
100
AcDbEntity
  8
Capa 1
 62
   250
370
     9
  0
POLYLINE
  5
2AF
330
1F
100
AcDbEntity
  8
Capa 1
 62
   250
370
     9
100
AcDb2dPolyline
 66
     1
 10
0.0
 20
0.0
 30
0.0
  0
VERTEX
  5
2B0
330
2AF
100
AcDbEntity
  8
Capa 1
 62
   250
370
     9
100
AcDbVertex
100
AcDb2dVertex
 10
93.7440091835438
 20
-152.0876656554568
 30
0.0
  0
VERTEX
  5
2B1
330
2AF
100
AcDbEntity
  8
Capa 1
 62
   250
370
     9
100
AcDbVertex
100
AcDb2dVertex
 10
93.7440091835438
 20
-162.8473661939492
 30
0.0
  0
VERTEX
  5
2B2
330
2AF
100
AcDbEntity
  8
Capa 1
 62
   250
370
     9
100
AcDbVertex
100
AcDb2dVertex
 10
113.4774763595181
 20
-162.8473661939492
 30
0.0
  0
SEQEND
  5
2B3
330
2AF
100
AcDbEntity
  8
Capa 1
 62
   250
370
     9
  0
POLYLINE
  5
2B4
330
1F
100
AcDbEntity
  8
Capa 1
 62
   250
370
     9
100
AcDb2dPolyline
 66
     1
 10
0.0
 20
0.0
 30
0.0
  0
VERTEX
  5
2B5
330
2B4
100
AcDbEntity
  8
Capa 1
 62
   250
370
     9
100
AcDbVertex
100
AcDb2dVertex
 10
79.45412947432668
 20
-162.8473661939492
 30
0.0
  0
VERTEX
  5
2B6
330
2B4
100
AcDbEntity
  8
Capa 1
 62
   250
370
     9
100
AcDbVertex
100
AcDb2dVertex
 10
81.85983174451091
 20
-162.8473661939492
 30
0.0
  0
SEQEND
  5
2B7
330
2B4
100
AcDbEntity
  8
Capa 1
 62
   250
370
     9
  0
POLYLINE
  5
2B8
330
1F
100
AcDbEntity
  8
Capa 1
 62
   250
370
     9
100
AcDb2dPolyline
 66
     1
 10
0.0
 20
0.0
 30
0.0
  0
VERTEX
  5
2B9
330
2B8
100
AcDbEntity
  8
Capa 1
 62
   250
370
     9
100
AcDbVertex
100
AcDb2dVertex
 10
93.7440091835438
 20
-162.8473661939492
 30
0.0
  0
VERTEX
  5
2BA
330
2B8
100
AcDbEntity
  8
Capa 1
 62
   250
370
     9
100
AcDbVertex
100
AcDb2dVertex
 10
90.74540411543846
 20
-162.8473661939492
 30
0.0
  0
SEQEND
  5
2BB
330
2B8
100
AcDbEntity
  8
Capa 1
 62
   250
370
     9
  0
POLYLINE
  5
2BC
330
1F
100
AcDbEntity
  8
Capa 1
 62
   250
370
     9
100
AcDb2dPolyline
 66
     1
 10
0.0
 20
0.0
 30
0.0
  0
VERTEX
  5
2BD
330
2BC
100
AcDbEntity
  8
Capa 1
 62
   250
370
     9
100
AcDbVertex
100
AcDb2dVertex
 10
59.14980806664877
 20
-163.4206289275576
 30
0.0
  0
VERTEX
  5
2BE
330
2BC
100
AcDbEntity
  8
Capa 1
 62
   250
370
     9
100
AcDbVertex
100
AcDb2dVertex
 10
81.63353939111762
 20
-163.4206289275576
 30
0.0
  0
SEQEND
  5
2BF
330
2BC
100
AcDbEntity
  8
Capa 1
 62
   250
370
     9
  0
POLYLINE
  5
2C0
330
1F
100
AcDbEntity
  8
Capa 1
 62
   250
370
     9
100
AcDb2dPolyline
 66
     1
 10
0.0
 20
0.0
 30
0.0
  0
VERTEX
  5
2C1
330
2C0
100
AcDbEntity
  8
Capa 1
 62
   250
370
     9
100
AcDbVertex
100
AcDb2dVertex
 10
90.98793834905659
 20
-163.4206289274928
 30
0.0
  0
VERTEX
  5
2C2
330
2C0
100
AcDbEntity
  8
Capa 1
 62
   250
370
     9
100
AcDbVertex
100
AcDb2dVertex
 10
113.4774763595181
 20
-163.4206289274928
 30
0.0
  0
SEQEND
  5
2C3
330
2C0
100
AcDbEntity
  8
Capa 1
 62
   250
370
     9
  0
POLYLINE
  5
2C4
330
1F
100
AcDbEntity
  8
Capa 1
 62
   250
370
     9
100
AcDb2dPolyline
 66
     1
 10
0.0
 20
0.0
 30
0.0
  0
VERTEX
  5
2C5
330
2C4
100
AcDbEntity
  8
Capa 1
 62
   250
370
     9
100
AcDbVertex
100
AcDb2dVertex
 10
69.30196877048773
 20
-173.0338039988352
 30
0.0
  0
VERTEX
  5
2C6
330
2C4
100
AcDbEntity
  8
Capa 1
 62
   250
370
     9
100
AcDbVertex
100
AcDb2dVertex
 10
81.63934607829995
 20
-173.0338039988352
 30
0.0
  0
SEQEND
  5
2C7
330
2C4
100
AcDbEntity
  8
Capa 1
 62
   250
370
     9
  0
POLYLINE
  5
2C8
330
1F
100
AcDbEntity
  8
Capa 1
 62
   250
370
     9
100
AcDb2dPolyline
 66
     1
 10
0.0
 20
0.0
 30
0.0
  0
VERTEX
  5
2C9
330
2C8
100
AcDbEntity
  8
Capa 1
 62
   250
370
     9
100
AcDbVertex
100
AcDb2dVertex
 10
90.98793834905659
 20
-173.0338039988352
 30
0.0
  0
VERTEX
  5
2CA
330
2C8
100
AcDbEntity
  8
Capa 1
 62
   250
370
     9
100
AcDbVertex
100
AcDb2dVertex
 10
103.2028442880803
 20
-173.0338039988352
 30
0.0
  0
SEQEND
  5
2CB
330
2C8
100
AcDbEntity
  8
Capa 1
 62
   250
370
     9
  0
POLYLINE
  5
2CC
330
1F
100
AcDbEntity
  8
Capa 1
 62
   250
370
     9
100
AcDb2dPolyline
 66
     1
 10
0.0
 20
0.0
 30
0.0
  0
VERTEX
  5
2CD
330
2CC
100
AcDbEntity
  8
Capa 1
 62
   250
370
     9
100
AcDbVertex
100
AcDb2dVertex
 10
59.53198322269143
 20
-151.2498201217234
 30
0.0
  0
VERTEX
  5
2CE
330
2CC
100
AcDbEntity
  8
Capa 1
 62
   250
370
     9
100
AcDbVertex
100
AcDb2dVertex
 10
59.53198322269143
 20
-152.0876656554568
 30
0.0
  0
SEQEND
  5
2CF
330
2CC
100
AcDbEntity
  8
Capa 1
 62
   250
370
     9
  0
POLYLINE
  5
2D0
330
1F
100
AcDbEntity
  8
Capa 1
 62
   250
370
     9
100
AcDb2dPolyline
 66
     1
 10
0.0
 20
0.0
 30
0.0
  0
VERTEX
  5
2D1
330
2D0
100
AcDbEntity
  8
Capa 1
 62
   250
370
     9
100
AcDbVertex
100
AcDb2dVertex
 10
61.9132284238339
 20
-151.2498201217234
 30
0.0
  0
VERTEX
  5
2D2
330
2D0
100
AcDbEntity
  8
Capa 1
 62
   250
370
     9
100
AcDbVertex
100
AcDb2dVertex
 10
61.9132284238339
 20
-152.0876656554568
 30
0.0
  0
SEQEND
  5
2D3
330
2D0
100
AcDbEntity
  8
Capa 1
 62
   250
370
     9
  0
POLYLINE
  5
2D4
330
1F
100
AcDbEntity
  8
Capa 1
 62
   250
370
     9
100
AcDb2dPolyline
 66
     1
 10
0.0
 20
0.0
 30
0.0
  0
VERTEX
  5
2D5
330
2D4
100
AcDbEntity
  8
Capa 1
 62
   250
370
     9
100
AcDbVertex
100
AcDb2dVertex
 10
64.06112629430905
 20
-151.2498201217234
 30
0.0
  0
VERTEX
  5
2D6
330
2D4
100
AcDbEntity
  8
Capa 1
 62
   250
370
     9
100
AcDbVertex
100
AcDb2dVertex
 10
64.06112629430905
 20
-152.0876656554568
 30
0.0
  0
SEQEND
  5
2D7
330
2D4
100
AcDbEntity
  8
Capa 1
 62
   250
370
     9
  0
POLYLINE
  5
2D8
330
1F
100
AcDbEntity
  8
Capa 1
 62
   250
370
     9
100
AcDb2dPolyline
 66
     1
 10
0.0
 20
0.0
 30
0.0
  0
VERTEX
  5
2D9
330
2D8
100
AcDbEntity
  8
Capa 1
 62
   250
370
     9
100
AcDbVertex
100
AcDb2dVertex
 10
77.77510509498283
 20
-151.2498201217234
 30
0.0
  0
VERTEX
  5
2DA
330
2D8
100
AcDbEntity
  8
Capa 1
 62
   250
370
     9
100
AcDbVertex
100
AcDb2dVertex
 10
77.77510509498283
 20
-152.0876656554568
 30
0.0
  0
SEQEND
  5
2DB
330
2D8
100
AcDbEntity
  8
Capa 1
 62
   250
370
     9
  0
POLYLINE
  5
2DC
330
1F
100
AcDbEntity
  8
Capa 1
 62
   250
370
     9
100
AcDb2dPolyline
 66
     1
 10
0.0
 20
0.0
 30
0.0
  0
VERTEX
  5
2DD
330
2DC
100
AcDbEntity
  8
Capa 1
 62
   250
370
     9
100
AcDbVertex
100
AcDb2dVertex
 10
60.20814139984586
 20
-124.8944346810566
 30
0.0
  0
VERTEX
  5
2DE
330
2DC
100
AcDbEntity
  8
Capa 1
 62
   250
370
     9
100
AcDbVertex
100
AcDb2dVertex
 10
60.20814139984586
 20
-125.4676973567927
 30
0.0
  0
SEQEND
  5
2DF
330
2DC
100
AcDbEntity
  8
Capa 1
 62
   250
370
     9
  0
POLYLINE
  5
2E0
330
1F
100
AcDbEntity
  8
Capa 1
 62
   250
370
     9
100
AcDb2dPolyline
 66
     1
 10
0.0
 20
0.0
 30
0.0
  0
VERTEX
  5
2E1
330
2E0
100
AcDbEntity
  8
Capa 1
 62
   250
370
     9
100
AcDbVertex
100
AcDb2dVertex
 10
112.4191430264493
 20
-124.8944346810566
 30
0.0
  0
VERTEX
  5
2E2
330
2E0
100
AcDbEntity
  8
Capa 1
 62
   250
370
     9
100
AcDbVertex
100
AcDb2dVertex
 10
112.4191430264493
 20
-125.4676973567927
 30
0.0
  0
SEQEND
  5
2E3
330
2E0
100
AcDbEntity
  8
Capa 1
 62
   250
370
     9
  0
POLYLINE
  5
2E4
330
1F
100
AcDbEntity
  8
Capa 1
 62
   250
370
     9
100
AcDb2dPolyline
 66
     1
 10
0.0
 20
0.0
 30
0.0
  0
VERTEX
  5
2E5
330
2E4
100
AcDbEntity
  8
Capa 1
 62
   250
370
     9
100
AcDbVertex
100
AcDb2dVertex
 10
70.58566465021526
 20
-173.0338039988352
 30
0.0
  0
VERTEX
  5
2E6
330
2E4
100
AcDbEntity
  8
Capa 1
 62
   250
370
     9
100
AcDbVertex
100
AcDb2dVertex
 10
70.58566465021526
 20
-170.1674903307946
 30
0.0
  0
VERTEX
  5
2E7
330
2E4
100
AcDbEntity
  8
Capa 1
 62
   250
370
     9
100
AcDbVertex
100
AcDb2dVertex
 10
69.55673153861136
 20
-170.1674903307946
 30
0.0
  0
VERTEX
  5
2E8
330
2E4
100
AcDbEntity
  8
Capa 1
 62
   250
370
     9
100
AcDbVertex
100
AcDb2dVertex
 10
69.55673153861136
 20
-163.4206289275576
 30
0.0
  0
VERTEX
  5
2E9
330
2E4
100
AcDbEntity
  8
Capa 1
 62
   250
370
     9
100
AcDbVertex
100
AcDb2dVertex
 10
81.63934607790596
 20
-163.4206289275576
 30
0.0
  0
VERTEX
  5
2EA
330
2E4
100
AcDbEntity
  8
Capa 1
 62
   250
370
     9
100
AcDbVertex
100
AcDb2dVertex
 10
81.63934607790596
 20
-170.1674903307946
 30
0.0
  0
VERTEX
  5
2EB
330
2E4
100
AcDbEntity
  8
Capa 1
 62
   250
370
     9
100
AcDbVertex
100
AcDb2dVertex
 10
80.43402443271594
 20
-170.1674903307946
 30
0.0
  0
VERTEX
  5
2EC
330
2E4
100
AcDbEntity
  8
Capa 1
 62
   250
370
     9
100
AcDbVertex
100
AcDb2dVertex
 10
80.43402443271594
 20
-173.0338039988352
 30
0.0
  0
VERTEX
  5
2ED
330
2E4
100
AcDbEntity
  8
Capa 1
 62
   250
370
     9
100
AcDbVertex
100
AcDb2dVertex
 10
70.58566465021526
 20
-173.0338039988352
 30
0.0
  0
SEQEND
  5
2EE
330
2E4
100
AcDbEntity
  8
Capa 1
 62
   250
370
     9
  0
POLYLINE
  5
2EF
330
1F
100
AcDbEntity
  8
Capa 1
 62
   250
370
     9
100
AcDb2dPolyline
 66
     1
 10
0.0
 20
0.0
 30
0.0
  0
VERTEX
  5
2F0
330
2EF
100
AcDbEntity
  8
Capa 1
 62
   250
370
     9
100
AcDbVertex
100
AcDb2dVertex
 10
92.01687146066051
 20
-173.0338039988352
 30
0.0
  0
VERTEX
  5
2F1
330
2EF
100
AcDbEntity
  8
Capa 1
 62
   250
370
     9
100
AcDbVertex
100
AcDb2dVertex
 10
92.01687146066051
 20
-170.1674903307946
 30
0.0
  0
VERTEX
  5
2F2
330
2EF
100
AcDbEntity
  8
Capa 1
 62
   250
370
     9
100
AcDbVertex
100
AcDb2dVertex
 10
90.98793834905659
 20
-170.1674903307946
 30
0.0
  0
VERTEX
  5
2F3
330
2EF
100
AcDbEntity
  8
Capa 1
 62
   250
370
     9
100
AcDbVertex
100
AcDb2dVertex
 10
90.98793834905659
 20
-163.4206289275576
 30
0.0
  0
VERTEX
  5
2F4
330
2EF
100
AcDbEntity
  8
Capa 1
 62
   250
370
     9
100
AcDbVertex
100
AcDb2dVertex
 10
103.0705528883512
 20
-163.4206289275576
 30
0.0
  0
VERTEX
  5
2F5
330
2EF
100
AcDbEntity
  8
Capa 1
 62
   250
370
     9
100
AcDbVertex
100
AcDb2dVertex
 10
103.0705528883512
 20
-170.1674903307946
 30
0.0
  0
VERTEX
  5
2F6
330
2EF
100
AcDbEntity
  8
Capa 1
 62
   250
370
     9
100
AcDbVertex
100
AcDb2dVertex
 10
101.8652312431612
 20
-170.1674903307946
 30
0.0
  0
VERTEX
  5
2F7
330
2EF
100
AcDbEntity
  8
Capa 1
 62
   250
370
     9
100
AcDbVertex
100
AcDb2dVertex
 10
101.8652312431612
 20
-173.0338039988352
 30
0.0
  0
VERTEX
  5
2F8
330
2EF
100
AcDbEntity
  8
Capa 1
 62
   250
370
     9
100
AcDbVertex
100
AcDb2dVertex
 10
92.01687146066051
 20
-173.0338039988352
 30
0.0
  0
SEQEND
  5
2F9
330
2EF
100
AcDbEntity
  8
Capa 1
 62
   250
370
     9
  0
INSERT
  5
2FB
330
1F
100
AcDbEntity
  8
Capa 1
100
AcDbBlockReference
  2
block 12
 10
0.0
 20
0.0
 30
0.0
  0
INSERT
  5
303
330
1F
100
AcDbEntity
  8
Capa 1
100
AcDbBlockReference
  2
block 13
 10
0.0
 20
0.0
 30
0.0
  0
SPLINE
  5
30A
330
1F
100
AcDbEntity
  8
Capa 1
 62
   250
370
    25
100
AcDbSpline
210
0.0
220
0.0
230
1.0
 70
     8
 71
     3
 72
   134
 73
   130
 74
     0
 42
0.0000000001
 43
0.0000000001
 12
1.0
 22
0.0
 32
0.0
 13
1.0
 23
0.0
 33
0.0
 40
0.0
 40
0.0
 40
0.0
 40
0.0
 40
1.0
 40
1.0
 40
1.0
 40
2.0
 40
2.0
 40
2.0
 40
3.0
 40
3.0
 40
3.0
 40
4.0
 40
4.0
 40
4.0
 40
5.0
 40
5.0
 40
5.0
 40
6.0
 40
6.0
 40
6.0
 40
7.0
 40
7.0
 40
7.0
 40
8.0
 40
8.0
 40
8.0
 40
9.0
 40
9.0
 40
9.0
 40
10.0
 40
10.0
 40
10.0
 40
11.0
 40
11.0
 40
11.0
 40
12.0
 40
12.0
 40
12.0
 40
13.0
 40
13.0
 40
13.0
 40
14.0
 40
14.0
 40
14.0
 40
15.0
 40
15.0
 40
15.0
 40
16.0
 40
16.0
 40
16.0
 40
17.0
 40
17.0
 40
17.0
 40
18.0
 40
18.0
 40
18.0
 40
19.0
 40
19.0
 40
19.0
 40
20.0
 40
20.0
 40
20.0
 40
21.0
 40
21.0
 40
21.0
 40
22.0
 40
22.0
 40
22.0
 40
23.0
 40
23.0
 40
23.0
 40
24.0
 40
24.0
 40
24.0
 40
25.0
 40
25.0
 40
25.0
 40
26.0
 40
26.0
 40
26.0
 40
27.0
 40
27.0
 40
27.0
 40
28.0
 40
28.0
 40
28.0
 40
29.0
 40
29.0
 40
29.0
 40
30.0
 40
30.0
 40
30.0
 40
31.0
 40
31.0
 40
31.0
 40
32.0
 40
32.0
 40
32.0
 40
33.0
 40
33.0
 40
33.0
 40
34.0
 40
34.0
 40
34.0
 40
35.0
 40
35.0
 40
35.0
 40
36.0
 40
36.0
 40
36.0
 40
37.0
 40
37.0
 40
37.0
 40
38.0
 40
38.0
 40
38.0
 40
39.0
 40
39.0
 40
39.0
 40
40.0
 40
40.0
 40
40.0
 40
41.0
 40
41.0
 40
41.0
 40
42.0
 40
42.0
 40
42.0
 40
43.0
 40
43.0
 40
43.0
 40
43.0
 10
113.4774786129046
 20
-134.5494530235458
 30
0.0
 10
113.4774786129046
 20
-134.5494530235458
 30
0.0
 10
113.4774786129046
 20
-125.4676860919515
 30
0.0
 10
113.4774786129046
 20
-125.4676860919515
 30
0.0
 10
113.4774786129046
 20
-125.4676860919515
 30
0.0
 10
112.4191430264493
 20
-125.4676973567927
 30
0.0
 10
112.4191430264493
 20
-125.4676973567927
 30
0.0
 10
112.4191430264493
 20
-125.4676973567927
 30
0.0
 10
112.4191430264493
 20
-124.894422203206
 30
0.0
 10
112.4191430264493
 20
-124.894422203206
 30
0.0
 10
112.4191430264493
 20
-124.894422203206
 30
0.0
 10
113.4774786129046
 20
-124.894422203206
 30
0.0
 10
113.4774786129046
 20
-124.894422203206
 30
0.0
 10
113.4774786129046
 20
-124.894422203206
 30
0.0
 10
113.4774786129046
 20
-118.2798604033728
 30
0.0
 10
113.4774786129046
 20
-118.2798604033728
 30
0.0
 10
113.4774786129046
 20
-118.2798604033728
 30
0.0
 10
113.4774786129046
 20
-111.9592729076656
 30
0.0
 10
113.4774786129046
 20
-111.9592729076656
 30
0.0
 10
113.4774786129046
 20
-111.9592729076656
 30
0.0
 10
113.448087642046
 20
-111.0626222120893
 30
0.0
 10
112.5808494491747
 20
-111.0626222120893
 30
0.0
 10
112.5808494491747
 20
-111.0626222120893
 30
0.0
 10
104.5110577845255
 20
-111.0626222120893
 30
0.0
 10
104.5110577845255
 20
-111.0626222120893
 30
0.0
 10
104.5110577845255
 20
-111.0626222120893
 30
0.0
 10
102.7177779252191
 20
-111.0510380785198
 30
0.0
 10
102.7177779252191
 20
-112.1797590187216
 30
0.0
 10
102.7177779252191
 20
-112.1797590187216
 30
0.0
 10
103.1649728510513
 20
-112.5962495310415
 30
0.0
 10
103.1649728510513
 20
-112.5962495310415
 30
0.0
 10
103.2967477533621
 20
-113.1068342138023
 30
0.0
 10
102.9780118254361
 20
-113.563201706364
 30
0.0
 10
102.500866100729
 20
-113.6610639499919
 30
0.0
 10
102.0237203760219
 20
-113.7589477254665
 30
0.0
 10
101.5575774250208
 20
-113.451472953408
 30
0.0
 10
101.4596936495462
 20
-112.9743272287009
 30
0.0
 10
101.3618314059183
 20
-112.4971815039938
 30
0.0
 10
101.6693061779768
 20
-112.0310170211459
 30
0.0
 10
102.1464519026839
 20
-111.933154777518
 30
0.0
 10
102.1464519026839
 20
-111.933154777518
 30
0.0
 10
102.1446216957074
 20
-111.9305063603637
 30
0.0
 10
102.1446216957074
 20
-111.9305063603637
 30
0.0
 10
102.1446216957074
 20
-111.9305063603637
 30
0.0
 10
101.6888570948556
 20
-111.5476916564125
 30
0.0
 10
101.6888570948556
 20
-111.5476916564125
 30
0.0
 10
101.6888570948556
 20
-111.5476916564125
 30
0.0
 10
90.98793834888718
 20
-111.5476916564125
 30
0.0
 10
90.98793834888718
 20
-111.5476916564125
 30
0.0
 10
90.98793834888718
 20
-111.5476916564125
 30
0.0
 10
91.17492090634913
 20
-112.5766340186223
 30
0.0
 10
91.17492090634913
 20
-112.5766340186223
 30
0.0
 10
91.17492090634913
 20
-112.5766340186223
 30
0.0
 10
90.98793834888718
 20
-112.5766340186223
 30
0.0
 10
90.98793834888718
 20
-112.5766340186223
 30
0.0
 10
90.98793834888718
 20
-112.5766340186223
 30
0.0
 10
90.98793834888718
 20
-111.5476916564125
 30
0.0
 10
90.98793834888718
 20
-111.5476916564125
 30
0.0
 10
90.98793834888718
 20
-111.5476916564125
 30
0.0
 10
90.98793834888718
 20
-102.6988777751611
 30
0.0
 10
90.98793834888718
 20
-102.6988777751611
 30
0.0
 10
90.98793834888718
 20
-102.3108093005942
 30
0.0
 10
90.67045126807496
 20
-101.9933222197819
 30
0.0
 10
90.28238279350802
 20
-101.9933222197819
 30
0.0
 10
90.28238279350802
 20
-101.9933222197819
 30
0.0
 10
82.34490432733918
 20
-101.9933222197819
 30
0.0
 10
82.34490432733918
 20
-101.9933222197819
 30
0.0
 10
81.95685738461967
 20
-101.9933222197819
 30
0.0
 10
81.63934877196002
 20
-102.3108093005942
 30
0.0
 10
81.63934877196002
 20
-102.6988777751611
 30
0.0
 10
81.63934877196002
 20
-102.6988777751611
 30
0.0
 10
81.63934877196002
 20
-111.5476916564125
 30
0.0
 10
81.63934877196002
 20
-111.5476916564125
 30
0.0
 10
81.63934877196002
 20
-111.5476916564125
 30
0.0
 10
81.63934877196002
 20
-112.5766340186223
 30
0.0
 10
81.63934877196002
 20
-112.5766340186223
 30
0.0
 10
81.63934877196002
 20
-112.5766340186223
 30
0.0
 10
81.45236621449807
 20
-112.5766340186223
 30
0.0
 10
81.45236621449807
 20
-112.5766340186223
 30
0.0
 10
81.45236621449807
 20
-112.5766340186223
 30
0.0
 10
81.63934877196002
 20
-111.5476916564125
 30
0.0
 10
81.63934877196002
 20
-111.5476916564125
 30
0.0
 10
81.63934877196002
 20
-111.5476916564125
 30
0.0
 10
70.93845155783836
 20
-111.5476916564125
 30
0.0
 10
70.93845155783836
 20
-111.5476916564125
 30
0.0
 10
70.93845155783836
 20
-111.5476916564125
 30
0.0
 10
70.48266542513981
 20
-111.9305063603637
 30
0.0
 10
70.48266542513981
 20
-111.9305063603637
 30
0.0
 10
70.48266542513981
 20
-111.9305063603637
 30
0.0
 10
70.48083521816326
 20
-111.933154777518
 30
0.0
 10
70.48083521816326
 20
-111.933154777518
 30
0.0
 10
70.95800247471715
 20
-112.0310170211459
 30
0.0
 10
71.26545571492892
 20
-112.4971815039938
 30
0.0
 10
71.16759347130136
 20
-112.9743272287009
 30
0.0
 10
71.06973122767316
 20
-113.451472953408
 30
0.0
 10
70.60358827667207
 20
-113.7589477254665
 30
0.0
 10
70.12642102011819
 20
-113.6610639499919
 30
0.0
 10
69.64927529541109
 20
-113.563201706364
 30
0.0
 10
69.33053936748513
 20
-113.1068342138023
 30
0.0
 10
69.46233580164272
 20
-112.5962495310415
 30
0.0
 10
69.46233580164272
 20
-112.5962495310415
 30
0.0
 10
69.90950919562815
 20
-112.1797590187216
 30
0.0
 10
69.90950919562815
 20
-112.1797590187216
 30
0.0
 10
69.90950919562815
 20
-111.0510380785198
 30
0.0
 10
68.1162293363217
 20
-111.0626222120893
 30
0.0
 10
68.1162293363217
 20
-111.0626222120893
 30
0.0
 10
68.1162293363217
 20
-111.0626222120893
 30
0.0
 10
60.04645920351926
 20
-111.0626222120893
 30
0.0
 10
60.04645920351926
 20
-111.0626222120893
 30
0.0
 10
59.17922101064796
 20
-111.0626222120893
 30
0.0
 10
59.14980850794296
 20
-111.9592729076656
 30
0.0
 10
59.14980850794296
 20
-111.9592729076656
 30
0.0
 10
59.14980850794296
 20
-111.9592729076656
 30
0.0
 10
59.14980850794296
 20
-118.2798604033728
 30
0.0
 10
59.14980850794296
 20
-118.2798604033728
 30
0.0
 10
59.14980850794296
 20
-118.2798604033728
 30
0.0
 10
59.14980850794296
 20
-124.894422203206
 30
0.0
 10
59.14980850794296
 20
-124.894422203206
 30
0.0
 10
59.14980850794296
 20
-124.894422203206
 30
0.0
 10
60.20814139984586
 20
-124.894422203206
 30
0.0
 10
60.20814139984586
 20
-124.894422203206
 30
0.0
 10
60.20814139984586
 20
-124.894422203206
 30
0.0
 10
60.20814139984586
 20
-125.4676973567927
 30
0.0
 10
60.20814139984586
 20
-125.4676973567927
 30
0.0
 10
60.20814139984586
 20
-125.4676973567927
 30
0.0
 10
59.14980850794296
 20
-125.4676860919515
 30
0.0
 10
59.14980850794296
 20
-125.4676860919515
 30
0.0
 10
59.14980850794296
 20
-125.4676860919515
 30
0.0
 10
59.14980850794296
 20
-134.5494530235458
 30
0.0
 10
59.14980850794296
 20
-134.5494530235458
 30
0.0
  0
SPLINE
  5
30B
330
1F
100
AcDbEntity
  8
Capa 1
 62
   250
370
    25
100
AcDbSpline
210
0.0
220
0.0
230
1.0
 70
     8
 71
     3
 72
   107
 73
   103
 74
     0
 42
0.0000000001
 43
0.0000000001
 12
1.0
 22
0.0
 32
0.0
 13
1.0
 23
0.0
 33
0.0
 40
0.0
 40
0.0
 40
0.0
 40
0.0
 40
1.0
 40
1.0
 40
1.0
 40
2.0
 40
2.0
 40
2.0
 40
3.0
 40
3.0
 40
3.0
 40
4.0
 40
4.0
 40
4.0
 40
5.0
 40
5.0
 40
5.0
 40
6.0
 40
6.0
 40
6.0
 40
7.0
 40
7.0
 40
7.0
 40
8.0
 40
8.0
 40
8.0
 40
9.0
 40
9.0
 40
9.0
 40
10.0
 40
10.0
 40
10.0
 40
11.0
 40
11.0
 40
11.0
 40
12.0
 40
12.0
 40
12.0
 40
13.0
 40
13.0
 40
13.0
 40
14.0
 40
14.0
 40
14.0
 40
15.0
 40
15.0
 40
15.0
 40
16.0
 40
16.0
 40
16.0
 40
17.0
 40
17.0
 40
17.0
 40
18.0
 40
18.0
 40
18.0
 40
19.0
 40
19.0
 40
19.0
 40
20.0
 40
20.0
 40
20.0
 40
21.0
 40
21.0
 40
21.0
 40
22.0
 40
22.0
 40
22.0
 40
23.0
 40
23.0
 40
23.0
 40
24.0
 40
24.0
 40
24.0
 40
25.0
 40
25.0
 40
25.0
 40
26.0
 40
26.0
 40
26.0
 40
27.0
 40
27.0
 40
27.0
 40
28.0
 40
28.0
 40
28.0
 40
29.0
 40
29.0
 40
29.0
 40
30.0
 40
30.0
 40
30.0
 40
31.0
 40
31.0
 40
31.0
 40
32.0
 40
32.0
 40
32.0
 40
33.0
 40
33.0
 40
33.0
 40
34.0
 40
34.0
 40
34.0
 40
34.0
 10
59.14980850794296
 20
-134.5494530235458
 30
0.0
 10
59.14980850794296
 20
-134.5494530235458
 30
0.0
 10
51.45245319709571
 20
-134.5494530235458
 30
0.0
 10
51.45245319709571
 20
-134.5494530235458
 30
0.0
 10
51.06440625437588
 20
-134.5494530235458
 30
0.0
 10
50.74689764171654
 20
-134.8669401043587
 30
0.0
 10
50.74689764171654
 20
-135.255008578925
 30
0.0
 10
50.74689764171654
 20
-135.255008578925
 30
0.0
 10
50.74689764171654
 20
-143.1924870450938
 30
0.0
 10
50.74689764171654
 20
-143.1924870450938
 30
0.0
 10
50.74689764171654
 20
-143.580533987814
 30
0.0
 10
51.06440625437588
 20
-143.898042600473
 30
0.0
 10
51.45245319709571
 20
-143.898042600473
 30
0.0
 10
51.45245319709571
 20
-143.898042600473
 30
0.0
 10
59.14980850794296
 20
-143.898042600473
 30
0.0
 10
59.14980850794296
 20
-143.898042600473
 30
0.0
 10
59.14980850794296
 20
-143.898042600473
 30
0.0
 10
59.14980850794296
 20
-151.2498117704558
 30
0.0
 10
59.14980850794296
 20
-151.2498117704558
 30
0.0
 10
59.14980850794296
 20
-151.2498117704558
 30
0.0
 10
59.14980850794296
 20
-152.0876589924685
 30
0.0
 10
59.14980850794296
 20
-152.0876589924685
 30
0.0
 10
59.14980850794296
 20
-152.0876589924685
 30
0.0
 10
59.14980850794296
 20
-166.2281395390636
 30
0.0
 10
59.14980850794296
 20
-166.2281395390636
 30
0.0
 10
59.14980850794296
 20
-166.2281395390636
 30
0.0
 10
69.30196660680434
 20
-171.6667825905469
 30
0.0
 10
69.30196660680434
 20
-171.6667825905469
 30
0.0
 10
69.30196660680434
 20
-171.6667825905469
 30
0.0
 10
69.30196660680434
 20
-177.5758103668474
 30
0.0
 10
69.30196660680434
 20
-177.5758103668474
 30
0.0
 10
69.30196660680434
 20
-177.5758103668474
 30
0.0
 10
81.63934877196002
 20
-177.5758103668474
 30
0.0
 10
81.63934877196002
 20
-177.5758103668474
 30
0.0
 10
81.63934877196002
 20
-177.5758103668474
 30
0.0
 10
81.63934877196002
 20
-180.0893305010389
 30
0.0
 10
81.63934877196002
 20
-180.0893305010389
 30
0.0
 10
81.63934877196002
 20
-180.4773989756055
 30
0.0
 10
81.95685738461967
 20
-180.7948860564181
 30
0.0
 10
82.34490432733918
 20
-180.7948860564181
 30
0.0
 10
82.34490432733918
 20
-180.7948860564181
 30
0.0
 10
90.28238279350802
 20
-180.7948860564181
 30
0.0
 10
90.28238279350802
 20
-180.7948860564181
 30
0.0
 10
90.67045126807496
 20
-180.7948860564181
 30
0.0
 10
90.98793834888718
 20
-180.4773989756055
 30
0.0
 10
90.98793834888718
 20
-180.0893305010389
 30
0.0
 10
90.98793834888718
 20
-180.0893305010389
 30
0.0
 10
90.98793834888718
 20
-177.5758103668474
 30
0.0
 10
90.98793834888718
 20
-177.5758103668474
 30
0.0
 10
90.98793834888718
 20
-177.5758103668474
 30
0.0
 10
103.2028473695422
 20
-177.5758103668474
 30
0.0
 10
103.2028473695422
 20
-177.5758103668474
 30
0.0
 10
103.2028473695422
 20
-177.5758103668474
 30
0.0
 10
103.2028473695422
 20
-171.6667825905469
 30
0.0
 10
103.2028473695422
 20
-171.6667825905469
 30
0.0
 10
103.2028473695422
 20
-171.6667825905469
 30
0.0
 10
113.4774786129046
 20
-166.1105541237827
 30
0.0
 10
113.4774786129046
 20
-166.1105541237827
 30
0.0
 10
113.4774786129046
 20
-166.1105541237827
 30
0.0
 10
113.4774786129046
 20
-161.4362485693957
 30
0.0
 10
113.4774786129046
 20
-161.4362485693957
 30
0.0
 10
113.4774786129046
 20
-161.4362485693957
 30
0.0
 10
115.2193188902469
 20
-161.4362485693957
 30
0.0
 10
115.2193188902469
 20
-161.4362485693957
 30
0.0
 10
115.2193188902469
 20
-161.4362485693957
 30
0.0
 10
115.2193188902469
 20
-151.2498117704558
 30
0.0
 10
115.2193188902469
 20
-151.2498117704558
 30
0.0
 10
115.2193188902469
 20
-151.2498117704558
 30
0.0
 10
113.4774786129046
 20
-151.2498117704558
 30
0.0
 10
113.4774786129046
 20
-151.2498117704558
 30
0.0
 10
113.4774786129046
 20
-151.2498117704558
 30
0.0
 10
113.4774786129046
 20
-149.5079714931135
 30
0.0
 10
113.4774786129046
 20
-149.5079714931135
 30
0.0
 10
113.4774786129046
 20
-149.5079714931135
 30
0.0
 10
116.1233119455764
 20
-149.5079714931135
 30
0.0
 10
116.1233119455764
 20
-149.5079714931135
 30
0.0
 10
116.1233119455764
 20
-149.5079714931135
 30
0.0
 10
118.1297355561859
 20
-148.6921728822063
 30
0.0
 10
118.1297355561859
 20
-148.6921728822063
 30
0.0
 10
118.1297355561859
 20
-148.6921728822063
 30
0.0
 10
118.1297355561859
 20
-145.6053888592696
 30
0.0
 10
118.1297355561859
 20
-145.6053888592696
 30
0.0
 10
118.1297355561859
 20
-145.6053888592696
 30
0.0
 10
113.4774786129046
 20
-145.6053888592696
 30
0.0
 10
113.4774786129046
 20
-145.6053888592696
 30
0.0
 10
113.4774786129046
 20
-145.6053888592696
 30
0.0
 10
113.4774786129046
 20
-143.898042600473
 30
0.0
 10
113.4774786129046
 20
-143.898042600473
 30
0.0
 10
113.4774786129046
 20
-143.898042600473
 30
0.0
 10
121.7456862456574
 20
-143.898042600473
 30
0.0
 10
121.7456862456574
 20
-143.898042600473
 30
0.0
 10
122.133754720224
 20
-143.898042600473
 30
0.0
 10
122.4512418010366
 20
-143.580533987814
 30
0.0
 10
122.4512418010366
 20
-143.1924870450938
 30
0.0
 10
122.4512418010366
 20
-143.1924870450938
 30
0.0
 10
122.4512418010366
 20
-135.255008578925
 30
0.0
 10
122.4512418010366
 20
-135.255008578925
 30
0.0
 10
122.4512418010366
 20
-134.8669401043587
 30
0.0
 10
122.133754720224
 20
-134.5494530235458
 30
0.0
 10
121.7456862456574
 20
-134.5494530235458
 30
0.0
 10
121.7456862456574
 20
-134.5494530235458
 30
0.0
 10
113.4774786129046
 20
-134.5494530235458
 30
0.0
 10
113.4774786129046
 20
-134.5494530235458
 30
0.0
  0
POLYLINE
  5
30C
330
1F
100
AcDbEntity
  8
Capa 1
 62
   250
370
    25
100
AcDb2dPolyline
 66
     1
 10
0.0
 20
0.0
 30
0.0
  0
VERTEX
  5
30D
330
30C
100
AcDbEntity
  8
Capa 1
 62
   250
370
    25
100
AcDbVertex
100
AcDb2dVertex
 10
79.43448941001331
 20
-151.2498201217234
 30
0.0
  0
VERTEX
  5
30E
330
30C
100
AcDbEntity
  8
Capa 1
 62
   250
370
    25
100
AcDbVertex
100
AcDb2dVertex
 10
79.43448941001331
 20
-130.7005559785339
 30
0.0
  0
VERTEX
  5
30F
330
30C
100
AcDbEntity
  8
Capa 1
 62
   250
370
    25
100
AcDbVertex
100
AcDb2dVertex
 10
93.7440091835438
 20
-130.7005559785339
 30
0.0
  0
VERTEX
  5
310
330
30C
100
AcDbEntity
  8
Capa 1
 62
   250
370
    25
100
AcDbVertex
100
AcDb2dVertex
 10
93.7440091835438
 20
-151.2498201217234
 30
0.0
  0
VERTEX
  5
311
330
30C
100
AcDbEntity
  8
Capa 1
 62
   250
370
    25
100
AcDbVertex
100
AcDb2dVertex
 10
94.78029181737335
 20
-151.2498201217234
 30
0.0
  0
VERTEX
  5
312
330
30C
100
AcDbEntity
  8
Capa 1
 62
   250
370
    25
100
AcDbVertex
100
AcDb2dVertex
 10
94.78029181737335
 20
-152.0876656554568
 30
0.0
  0
VERTEX
  5
313
330
30C
100
AcDbEntity
  8
Capa 1
 62
   250
370
    25
100
AcDbVertex
100
AcDb2dVertex
 10
77.77510509498283
 20
-152.0876656554568
 30
0.0
  0
VERTEX
  5
314
330
30C
100
AcDbEntity
  8
Capa 1
 62
   250
370
    25
100
AcDbVertex
100
AcDb2dVertex
 10
77.77510509498283
 20
-151.2498201217234
 30
0.0
  0
VERTEX
  5
315
330
30C
100
AcDbEntity
  8
Capa 1
 62
   250
370
    25
100
AcDbVertex
100
AcDb2dVertex
 10
79.43448941001331
 20
-151.2498201217234
 30
0.0
  0
SEQEND
  5
316
330
30C
100
AcDbEntity
  8
Capa 1
 62
   250
370
    25
  0
POLYLINE
  5
317
330
1F
100
AcDbEntity
  8
Capa 1
 62
   250
370
     9
100
AcDb2dPolyline
 66
     1
 10
0.0
 20
0.0
 30
0.0
  0
VERTEX
  5
318
330
317
100
AcDbEntity
  8
Capa 1
 62
   250
370
     9
100
AcDbVertex
100
AcDb2dVertex
 10
159.6471650294069
 20
-125.4676973567927
 30
0.0
  0
VERTEX
  5
319
330
317
100
AcDbEntity
  8
Capa 1
 62
   250
370
     9
100
AcDbVertex
100
AcDb2dVertex
 10
140.9720290537042
 20
-125.4676973567927
 30
0.0
  0
VERTEX
  5
31A
330
317
100
AcDbEntity
  8
Capa 1
 62
   250
370
     9
100
AcDbVertex
100
AcDb2dVertex
 10
140.9720290537042
 20
-124.8944346810566
 30
0.0
  0
VERTEX
  5
31B
330
317
100
AcDbEntity
  8
Capa 1
 62
   250
370
     9
100
AcDbVertex
100
AcDb2dVertex
 10
159.6471650294069
 20
-124.8944346810566
 30
0.0
  0
VERTEX
  5
31C
330
317
100
AcDbEntity
  8
Capa 1
 62
   250
370
     9
100
AcDbVertex
100
AcDb2dVertex
 10
159.6471650294069
 20
-125.4676973567927
 30
0.0
  0
SEQEND
  5
31D
330
317
100
AcDbEntity
  8
Capa 1
 62
   250
370
     9
  0
POLYLINE
  5
31E
330
1F
100
AcDbEntity
  8
Capa 1
 62
   250
370
     9
100
AcDb2dPolyline
 66
     1
 10
0.0
 20
0.0
 30
0.0
  0
VERTEX
  5
31F
330
31E
100
AcDbEntity
  8
Capa 1
 62
   250
370
     9
100
AcDbVertex
100
AcDb2dVertex
 10
59.14980806664877
 20
-166.9924967292694
 30
0.0
  0
VERTEX
  5
320
330
31E
100
AcDbEntity
  8
Capa 1
 62
   250
370
     9
100
AcDbVertex
100
AcDb2dVertex
 10
59.14980806664877
 20
-194.7442926536899
 30
0.0
  0
SEQEND
  5
321
330
31E
100
AcDbEntity
  8
Capa 1
 62
   250
370
     9
  0
POLYLINE
  5
322
330
1F
100
AcDbEntity
  8
Capa 1
 62
   250
370
     9
100
AcDb2dPolyline
 66
     1
 10
0.0
 20
0.0
 30
0.0
  0
VERTEX
  5
323
330
322
100
AcDbEntity
  8
Capa 1
 62
   250
370
     9
100
AcDbVertex
100
AcDb2dVertex
 10
79.45414306318682
 20
-166.9925029414359
 30
0.0
  0
VERTEX
  5
324
330
322
100
AcDbEntity
  8
Capa 1
 62
   250
370
     9
100
AcDbVertex
100
AcDb2dVertex
 10
79.45414306318682
 20
-187.8063486240104
 30
0.0
  0
SEQEND
  5
325
330
322
100
AcDbEntity
  8
Capa 1
 62
   250
370
     9
  0
POLYLINE
  5
326
330
1F
100
AcDbEntity
  8
Capa 1
 62
   250
370
     9
100
AcDb2dPolyline
 66
     1
 10
0.0
 20
0.0
 30
0.0
  0
VERTEX
  5
327
330
326
100
AcDbEntity
  8
Capa 1
 62
   250
370
     9
100
AcDbVertex
100
AcDb2dVertex
 10
93.74402277240392
 20
-166.9925029414359
 30
0.0
  0
VERTEX
  5
328
330
326
100
AcDbEntity
  8
Capa 1
 62
   250
370
     9
100
AcDbVertex
100
AcDb2dVertex
 10
93.74402277240392
 20
-187.8063486240104
 30
0.0
  0
SEQEND
  5
329
330
326
100
AcDbEntity
  8
Capa 1
 62
   250
370
     9
  0
POLYLINE
  5
32A
330
1F
100
AcDbEntity
  8
Capa 1
 62
   250
370
     9
100
AcDb2dPolyline
 66
     1
 10
0.0
 20
0.0
 30
0.0
  0
VERTEX
  5
32B
330
32A
100
AcDbEntity
  8
Capa 1
 62
   250
370
     9
100
AcDbVertex
100
AcDb2dVertex
 10
113.4774763595181
 20
-166.9924967292694
 30
0.0
  0
VERTEX
  5
32C
330
32A
100
AcDbEntity
  8
Capa 1
 62
   250
370
     9
100
AcDbVertex
100
AcDb2dVertex
 10
113.4774763595181
 20
-194.7442926536899
 30
0.0
  0
SEQEND
  5
32D
330
32A
100
AcDbEntity
  8
Capa 1
 62
   250
370
     9
  0
POLYLINE
  5
32E
330
1F
100
AcDbEntity
  8
Capa 1
 62
   250
370
     9
100
AcDb2dPolyline
 66
     1
 10
0.0
 20
0.0
 30
0.0
  0
VERTEX
  5
32F
330
32E
100
AcDbEntity
  8
Capa 1
 62
   250
370
     9
100
AcDbVertex
100
AcDb2dVertex
 10
59.14980806664877
 20
-193.9211461644059
 30
0.0
  0
VERTEX
  5
330
330
32E
100
AcDbEntity
  8
Capa 1
 62
   250
370
     9
100
AcDbVertex
100
AcDb2dVertex
 10
113.4774763595181
 20
-193.9211461644059
 30
0.0
  0
SEQEND
  5
331
330
32E
100
AcDbEntity
  8
Capa 1
 62
   250
370
     9
  0
POLYLINE
  5
332
330
1F
100
AcDbEntity
  8
Capa 1
 62
   250
370
     9
100
AcDb2dPolyline
 66
     1
 10
0.0
 20
0.0
 30
0.0
  0
VERTEX
  5
333
330
332
100
AcDbEntity
  8
Capa 1
 62
   250
370
     9
100
AcDbVertex
100
AcDb2dVertex
 10
79.45412947432668
 20
-186.5128277608528
 30
0.0
  0
VERTEX
  5
334
330
332
100
AcDbEntity
  8
Capa 1
 62
   250
370
     9
100
AcDbVertex
100
AcDb2dVertex
 10
93.74402277240392
 20
-186.5128277608528
 30
0.0
  0
SEQEND
  5
335
330
332
100
AcDbEntity
  8
Capa 1
 62
   250
370
     9
  0
MTEXT
  5
336
330
1F
100
AcDbEntity
  8
Capa 1
 62
   250
100
AcDbMText
 10
83.93976764699738
 20
-193.0978337520414
 30
0.0
 40
2.9971999992507
 41
0.0
 71
     7
 72
     1
  1
\fArial|b0|i0|c0|p34;\W1;80
 73
     1
 44
1.0
  0
MTEXT
  5
337
330
1F
100
AcDbEntity
  8
Capa 1
 62
   250
100
AcDbMText
 10
83.93976764699738
 20
-185.7483116321314
 30
0.0
 40
2.9971999992507
 41
0.0
 71
     7
 72
     1
  1
\fArial|b0|i0|c0|p34;\W1;20
 73
     1
 44
1.0
  0
POLYLINE
  5
338
330
1F
100
AcDbEntity
  8
Capa 1
 62
   250
370
     9
100
AcDb2dPolyline
 66
     1
 10
0.0
 20
0.0
 30
0.0
  0
VERTEX
  5
339
330
338
100
AcDbEntity
  8
Capa 1
 62
   250
370
     9
100
AcDbVertex
100
AcDb2dVertex
 10
140.9720764147895
 20
-179.104539443071
 30
0.0
  0
VERTEX
  5
33A
330
338
100
AcDbEntity
  8
Capa 1
 62
   250
370
     9
100
AcDbVertex
100
AcDb2dVertex
 10
140.9720764147895
 20
-187.8063792733861
 30
0.0
  0
SEQEND
  5
33B
330
338
100
AcDbEntity
  8
Capa 1
 62
   250
370
     9
  0
POLYLINE
  5
33C
330
1F
100
AcDbEntity
  8
Capa 1
 62
   250
370
     9
100
AcDb2dPolyline
 66
     1
 10
0.0
 20
0.0
 30
0.0
  0
VERTEX
  5
33D
330
33C
100
AcDbEntity
  8
Capa 1
 62
   250
370
     9
100
AcDbVertex
100
AcDb2dVertex
 10
159.6472006188377
 20
-179.104539443071
 30
0.0
  0
VERTEX
  5
33E
330
33C
100
AcDbEntity
  8
Capa 1
 62
   250
370
     9
100
AcDbVertex
100
AcDb2dVertex
 10
159.6472006188377
 20
-187.8063792733861
 30
0.0
  0
SEQEND
  5
33F
330
33C
100
AcDbEntity
  8
Capa 1
 62
   250
370
     9
  0
POLYLINE
  5
340
330
1F
100
AcDbEntity
  8
Capa 1
 62
   250
370
     9
100
AcDb2dPolyline
 66
     1
 10
0.0
 20
0.0
 30
0.0
  0
VERTEX
  5
341
330
340
100
AcDbEntity
  8
Capa 1
 62
   250
370
     9
100
AcDbVertex
100
AcDb2dVertex
 10
140.9720272372352
 20
-186.5128277608528
 30
0.0
  0
VERTEX
  5
342
330
340
100
AcDbEntity
  8
Capa 1
 62
   250
370
     9
100
AcDbVertex
100
AcDb2dVertex
 10
159.6471650301435
 20
-186.5128277608528
 30
0.0
  0
SEQEND
  5
343
330
340
100
AcDbEntity
  8
Capa 1
 62
   250
370
     9
  0
MTEXT
  5
344
330
1F
100
AcDbEntity
  8
Capa 1
 62
   250
100
AcDbMText
 10
147.9553046386432
 20
-185.7483116321314
 30
0.0
 40
2.9971999992507
 41
0.0
 71
     7
 72
     1
  1
\fArial|b0|i0|c0|p34;\W1;28
 73
     1
 44
1.0
  0
MTEXT
  5
345
330
1F
100
AcDbEntity
  8
Capa 1
 62
   250
100
AcDbMText
 10
40.79162079533052
 20
-144.3767170863017
 30
0.0
 40
2.9971999992507
 41
0.0
 71
     7
 72
     1
  1
\fArial|b0|i0|c0|p34;\W1;91
 11
6.123233995736766E-17
 21
1.0
 31
0.0
 73
     1
 44
1.0
  0
MTEXT
  5
346
330
1F
100
AcDbEntity
  8
Capa 1
 62
   250
100
AcDbMText
 10
47.59498459367851
 20
-143.7483316697921
 30
0.0
 40
2.9971999992507
 41
0.0
 71
     7
 72
     1
  1
\fArial|b0|i0|c0|p34;\W1;31
 11
6.123233995736766E-17
 21
1.0
 31
0.0
 73
     1
 44
1.0
  0
POLYLINE
  5
347
330
1F
100
AcDbEntity
  8
Capa 1
 62
   250
370
     9
100
AcDb2dPolyline
 66
     1
 10
0.0
 20
0.0
 30
0.0
  0
VERTEX
  5
348
330
347
100
AcDbEntity
  8
Capa 1
 62
   250
370
     9
100
AcDbVertex
100
AcDb2dVertex
 10
58.18461215272876
 20
-111.0111853340386
 30
0.0
  0
VERTEX
  5
349
330
347
100
AcDbEntity
  8
Capa 1
 62
   250
370
     9
100
AcDbVertex
100
AcDb2dVertex
 10
41.55017284606658
 20
-111.0111853340386
 30
0.0
  0
SEQEND
  5
34A
330
347
100
AcDbEntity
  8
Capa 1
 62
   250
370
     9
  0
POLYLINE
  5
34B
330
1F
100
AcDbEntity
  8
Capa 1
 62
   250
370
     9
100
AcDb2dPolyline
 66
     1
 10
0.0
 20
0.0
 30
0.0
  0
VERTEX
  5
34C
330
34B
100
AcDbEntity
  8
Capa 1
 62
   250
370
     9
100
AcDbVertex
100
AcDb2dVertex
 10
77.77510509498283
 20
-130.7005559785339
 30
0.0
  0
VERTEX
  5
34D
330
34B
100
AcDbEntity
  8
Capa 1
 62
   250
370
     9
100
AcDbVertex
100
AcDb2dVertex
 10
47.59498109265967
 20
-130.7005559785339
 30
0.0
  0
SEQEND
  5
34E
330
34B
100
AcDbEntity
  8
Capa 1
 62
   250
370
     9
  0
POLYLINE
  5
34F
330
1F
100
AcDbEntity
  8
Capa 1
 62
   250
370
     9
100
AcDb2dPolyline
 66
     1
 10
0.0
 20
0.0
 30
0.0
  0
VERTEX
  5
350
330
34F
100
AcDbEntity
  8
Capa 1
 62
   250
370
     9
100
AcDbVertex
100
AcDb2dVertex
 10
57.8500909958438
 20
-152.0876656554568
 30
0.0
  0
VERTEX
  5
351
330
34F
100
AcDbEntity
  8
Capa 1
 62
   250
370
     9
100
AcDbVertex
100
AcDb2dVertex
 10
47.59498109265967
 20
-152.0876656554568
 30
0.0
  0
SEQEND
  5
352
330
34F
100
AcDbEntity
  8
Capa 1
 62
   250
370
     9
  0
POLYLINE
  5
353
330
1F
100
AcDbEntity
  8
Capa 1
 62
   250
370
     9
100
AcDb2dPolyline
 66
     1
 10
0.0
 20
0.0
 30
0.0
  0
VERTEX
  5
354
330
353
100
AcDbEntity
  8
Capa 1
 62
   250
370
     9
100
AcDbVertex
100
AcDb2dVertex
 10
68.11622518233045
 20
-173.0338039988352
 30
0.0
  0
VERTEX
  5
355
330
353
100
AcDbEntity
  8
Capa 1
 62
   250
370
     9
100
AcDbVertex
100
AcDb2dVertex
 10
41.55017284606658
 20
-173.0338039988352
 30
0.0
  0
SEQEND
  5
356
330
353
100
AcDbEntity
  8
Capa 1
 62
   250
370
     9
  0
POLYLINE
  5
357
330
1F
100
AcDbEntity
  8
Capa 1
 62
   250
370
     9
100
AcDb2dPolyline
 66
     1
 10
0.0
 20
0.0
 30
0.0
  0
VERTEX
  5
358
330
357
100
AcDbEntity
  8
Capa 1
 62
   250
370
     9
100
AcDbVertex
100
AcDb2dVertex
 10
42.37331933534997
 20
-111.0111853340386
 30
0.0
  0
VERTEX
  5
359
330
357
100
AcDbEntity
  8
Capa 1
 62
   250
370
     9
100
AcDbVertex
100
AcDb2dVertex
 10
42.37331933534997
 20
-173.0338039988352
 30
0.0
  0
SEQEND
  5
35A
330
357
100
AcDbEntity
  8
Capa 1
 62
   250
370
     9
  0
POLYLINE
  5
35B
330
1F
100
AcDbEntity
  8
Capa 1
 62
   250
370
     9
100
AcDb2dPolyline
 66
     1
 10
0.0
 20
0.0
 30
0.0
  0
VERTEX
  5
35C
330
35B
100
AcDbEntity
  8
Capa 1
 62
   250
370
     9
100
AcDbVertex
100
AcDb2dVertex
 10
48.6840884174894
 20
-130.7005559785339
 30
0.0
  0
VERTEX
  5
35D
330
35B
100
AcDbEntity
  8
Capa 1
 62
   250
370
     9
100
AcDbVertex
100
AcDb2dVertex
 10
48.6840884174894
 20
-152.0876656554568
 30
0.0
  0
SEQEND
  5
35E
330
35B
100
AcDbEntity
  8
Capa 1
 62
   250
370
     9
  0
ENDSEC
  0
SECTION
  2
OBJECTS
  0
DICTIONARY
  5
C
330
0
100
AcDbDictionary
281
     1
  3
ACAD_GROUP
350
D
  3
ACAD_LAYOUT
350
1A
  3
ACAD_MATERIAL
350
3B
  3
ACAD_MLEADERSTYLE
350
361
  3
ACAD_MLINESTYLE
350
17
  3
ACAD_PLOTSETTINGS
350
19
  3
ACAD_PLOTSTYLENAME
350
E
  3
ACAD_VISUALSTYLE
350
2A
  3
AcDbVariableDictionary
350
35F
  0
DICTIONARY
  5
D
102
{ACAD_REACTORS
330
C
102
}
330
C
100
AcDbDictionary
281
     1
  0
DICTIONARY
  5
1A
102
{ACAD_REACTORS
330
C
102
}
330
C
100
AcDbDictionary
281
     1
  3
Layout1
350
1E
  3
Layout2
350
26
  3
Model
350
22
  0
DICTIONARY
  5
3B
102
{ACAD_REACTORS
330
C
102
}
330
C
100
AcDbDictionary
281
     1
  3
ByBlock
350
3D
  3
ByLayer
350
3C
  3
Global
350
3E
  0
DICTIONARY
  5
361
102
{ACAD_REACTORS
330
C
102
}
330
C
100
AcDbDictionary
281
     1
  0
DICTIONARY
  5
17
102
{ACAD_REACTORS
330
C
102
}
330
C
100
AcDbDictionary
281
     1
  3
Standard
350
18
  0
DICTIONARY
  5
19
102
{ACAD_REACTORS
330
C
102
}
330
C
100
AcDbDictionary
281
     1
  0
ACDBDICTIONARYWDFLT
  5
E
102
{ACAD_REACTORS
330
C
102
}
330
C
100
AcDbDictionary
281
     1
  3
Normal
350
F
100
AcDbDictionaryWithDefault
340
F
  0
DICTIONARY
  5
2A
102
{ACAD_REACTORS
330
C
102
}
330
C
100
AcDbDictionary
281
     1
  3
2dWireframe
350
2F
  3
3D Hidden
350
31
  3
3dWireframe
350
30
  3
Basic
350
32
  3
Brighten
350
36
  3
ColorChange
350
3A
  3
Conceptual
350
34
  3
Dim
350
35
  3
Facepattern
350
39
  3
Flat
350
2B
  3
FlatWithEdges
350
2C
  3
Gouraud
350
2D
  3
GouraudWithEdges
350
2E
  3
Linepattern
350
38
  3
Realistic
350
33
  3
Thicken
350
37
  0
DICTIONARY
  5
35F
102
{ACAD_REACTORS
330
C
102
}
330
C
100
AcDbDictionary
281
     1
  3
DIMASSOC
350
362
  3
HIDETEXT
350
363
  0
LAYOUT
  5
1E
102
{ACAD_REACTORS
330
1A
102
}
330
1A
100
AcDbPlotSettings
  1

  2
none_device
  4

  6

 40
0.0
 41
0.0
 42
0.0
 43
0.0
 44
0.0
 45
0.0
 46
0.0
 47
0.0
 48
0.0
 49
0.0
140
0.0
141
0.0
142
1.0
143
1.0
 70
   688
 72
     0
 73
     0
 74
     5
  7

 75
    16
147
1.0
148
0.0
149
0.0
100
AcDbLayout
  1
Layout1
 70
     1
 71
     1
 10
0.0
 20
0.0
 11
12.0
 21
9.0
 12
0.0
 22
0.0
 32
0.0
 14
1.000000000000000E+20
 24
1.000000000000000E+20
 34
1.000000000000000E+20
 15
-1.000000000000000E+20
 25
-1.000000000000000E+20
 35
-1.000000000000000E+20
146
0.0
 13
0.0
 23
0.0
 33
0.0
 16
1.0
 26
0.0
 36
0.0
 17
0.0
 27
1.0
 37
0.0
 76
     0
330
1B
  0
LAYOUT
  5
26
102
{ACAD_REACTORS
330
1A
102
}
330
1A
100
AcDbPlotSettings
  1

  2
none_device
  4

  6

 40
0.0
 41
0.0
 42
0.0
 43
0.0
 44
0.0
 45
0.0
 46
0.0
 47
0.0
 48
0.0
 49
0.0
140
0.0
141
0.0
142
1.0
143
1.0
 70
   688
 72
     0
 73
     0
 74
     5
  7

 75
    16
147
1.0
148
0.0
149
0.0
100
AcDbLayout
  1
Layout2
 70
     1
 71
     2
 10
0.0
 20
0.0
 11
0.0
 21
0.0
 12
0.0
 22
0.0
 32
0.0
 14
0.0
 24
0.0
 34
0.0
 15
0.0
 25
0.0
 35
0.0
146
0.0
 13
0.0
 23
0.0
 33
0.0
 16
1.0
 26
0.0
 36
0.0
 17
0.0
 27
1.0
 37
0.0
 76
     0
330
23
  0
LAYOUT
  5
22
102
{ACAD_REACTORS
330
1A
102
}
330
1A
100
AcDbPlotSettings
  1

  2
none_device
  4

  6

 40
0.0
 41
0.0
 42
0.0
 43
0.0
 44
0.0
 45
0.0
 46
0.0
 47
0.0
 48
0.0
 49
0.0
140
0.0
141
0.0
142
1.0
143
1.0
 70
  1712
 72
     0
 73
     0
 74
     0
  7

 75
     0
147
1.0
148
0.0
149
0.0
100
AcDbLayout
  1
Model
 70
     1
 71
     0
 10
0.0
 20
0.0
 11
12.0
 21
9.0
 12
0.0
 22
0.0
 32
0.0
 14
1.000000000000000E+20
 24
1.000000000000000E+20
 34
1.000000000000000E+20
 15
-1.000000000000000E+20
 25
-1.000000000000000E+20
 35
-1.000000000000000E+20
146
0.0
 13
0.0
 23
0.0
 33
0.0
 16
1.0
 26
0.0
 36
0.0
 17
0.0
 27
1.0
 37
0.0
 76
     0
330
1F
331
29
  0
MATERIAL
  5
3D
102
{ACAD_REACTORS
330
3B
102
}
102
{ACAD_XDICTIONARY
360
386
102
}
330
3B
100
AcDbMaterial
  1
ByBlock
  0
MATERIAL
  5
3C
102
{ACAD_REACTORS
330
3B
102
}
102
{ACAD_XDICTIONARY
360
384
102
}
330
3B
100
AcDbMaterial
  1
ByLayer
  0
MATERIAL
  5
3E
102
{ACAD_REACTORS
330
3B
102
}
102
{ACAD_XDICTIONARY
360
388
102
}
330
3B
100
AcDbMaterial
  1
Global
  0
MLINESTYLE
  5
18
102
{ACAD_REACTORS
330
17
102
}
330
17
100
AcDbMlineStyle
  2
Standard
 70
     0
  3

 62
   256
 51
90.0
 52
90.0
 71
     2
 49
0.5
 62
   256
  6
BYLAYER
 49
-0.5
 62
   256
  6
BYLAYER
  0
ACDBPLACEHOLDER
  5
F
102
{ACAD_REACTORS
330
E
102
}
330
E
  0
VISUALSTYLE
  5
2F
102
{ACAD_REACTORS
330
2A
102
}
102
{ACAD_XDICTIONARY
360
36C
102
}
330
2A
100
AcDbVisualStyle
  2
2dWireframe
 70
     4
 71
     0
 72
     2
 73
     0
 90
        0
 40
-0.6
 41
-30.0
 62
     5
 63
     7
 74
     1
 91
        4
 64
     7
 65
   257
 75
     1
175
     1
 42
1.0
 92
        0
 66
   257
 43
1.0
 76
     1
 77
     6
 78
     2
 67
     7
 79
     5
170
     0
171
     0
290
     0
174
     0
 93
        1
 44
0.0
173
     0
291
     0
 45
0.0
1001
ACAD
1000
AcDbSavedByObjectVersion
1070
     0
  0
VISUALSTYLE
  5
31
102
{ACAD_REACTORS
330
2A
102
}
102
{ACAD_XDICTIONARY
360
370
102
}
330
2A
100
AcDbVisualStyle
  2
3D Hidden
 70
     6
 71
     1
 72
     2
 73
     2
 90
        0
 40
-0.6
 41
-30.0
 62
     5
 63
     7
 74
     2
 91
        2
 64
     7
 65
   257
 75
     2
175
     1
 42
40.0
 92
        0
 66
   257
 43
1.0
 76
     1
 77
     6
 78
     2
 67
     7
 79
     3
170
     0
171
     0
290
     0
174
     0
 93
        1
 44
0.0
173
     0
291
     0
 45
0.0
1001
ACAD
1000
AcDbSavedByObjectVersion
1070
     0
  0
VISUALSTYLE
  5
30
102
{ACAD_REACTORS
330
2A
102
}
102
{ACAD_XDICTIONARY
360
36E
102
}
330
2A
100
AcDbVisualStyle
  2
3dWireframe
 70
     5
 71
     0
 72
     2
 73
     0
 90
        0
 40
-0.6
 41
-30.0
 62
     5
 63
     7
 74
     1
 91
        4
 64
     7
 65
   257
 75
     1
175
     1
 42
1.0
 92
        0
 66
   257
 43
1.0
 76
     1
 77
     6
 78
     2
 67
     7
 79
     5
170
     0
171
     0
290
     0
174
     0
 93
        1
 44
0.0
173
     0
291
     0
 45
0.0
1001
ACAD
1000
AcDbSavedByObjectVersion
1070
     0
  0
VISUALSTYLE
  5
32
102
{ACAD_REACTORS
330
2A
102
}
102
{ACAD_XDICTIONARY
360
372
102
}
330
2A
100
AcDbVisualStyle
  2
Basic
 70
     7
 71
     1
 72
     0
 73
     1
 90
        0
 40
-0.6
 41
-30.0
 62
     5
 63
     7
 74
     0
 91
        4
 64
     7
 65
   257
 75
     1
175
     1
 42
1.0
 92
        8
 66
     7
 43
1.0
 76
     1
 77
     6
 78
     2
 67
     7
 79
     5
170
     0
171
     0
290
     0
174
     0
 93
        1
 44
0.0
173
     0
291
     1
 45
0.0
1001
ACAD
1000
AcDbSavedByObjectVersion
1070
     0
  0
VISUALSTYLE
  5
36
102
{ACAD_REACTORS
330
2A
102
}
102
{ACAD_XDICTIONARY
360
37A
102
}
330
2A
100
AcDbVisualStyle
  2
Brighten
 70
    12
 71
     2
 72
     2
 73
     0
 90
        0
 40
-0.6
 41
-30.0
 62
     5
 63
     7
 74
     1
 91
        4
 64
     7
 65
   257
 75
     1
175
     1
 42
1.0
 92
        8
 66
     7
 43
1.0
 76
     1
 77
     6
 78
     2
 67
     7
 79
     5
170
     0
171
     0
290
     0
174
     0
 93
        1
 44
50.0
173
     0
291
     1
 45
0.0
1001
ACAD
1000
AcDbSavedByObjectVersion
1070
     0
  0
VISUALSTYLE
  5
3A
102
{ACAD_REACTORS
330
2A
102
}
102
{ACAD_XDICTIONARY
360
382
102
}
330
2A
100
AcDbVisualStyle
  2
ColorChange
 70
    16
 71
     2
 72
     2
 73
     3
 90
        0
 40
-0.6
 41
-30.0
 62
     5
 63
     8
 74
     1
 91
        4
 64
     7
 65
   257
 75
     1
175
     1
 42
1.0
 92
        8
 66
     8
 43
1.0
 76
     1
 77
     6
 78
     2
 67
     7
 79
     5
170
     0
171
     0
290
     0
174
     0
 93
        1
 44
0.0
173
     0
291
     1
 45
0.0
1001
ACAD
1000
AcDbSavedByObjectVersion
1070
     0
  0
VISUALSTYLE
  5
34
102
{ACAD_REACTORS
330
2A
102
}
102
{ACAD_XDICTIONARY
360
376
102
}
330
2A
100
AcDbVisualStyle
  2
Conceptual
 70
     9
 71
     3
 72
     2
 73
     0
 90
        0
 40
-0.6
 41
-30.0
 62
     5
 63
     7
 74
     2
 91
        2
 64
     7
 65
   257
 75
     1
175
     1
 42
40.0
 92
        8
 66
     7
 43
1.0
 76
     1
 77
     6
 78
     2
 67
     7
 79
     3
170
     0
171
     0
290
     0
174
     0
 93
        1
 44
0.0
173
     0
291
     0
 45
0.0
1001
ACAD
1000
AcDbSavedByObjectVersion
1070
     0
  0
VISUALSTYLE
  5
35
102
{ACAD_REACTORS
330
2A
102
}
102
{ACAD_XDICTIONARY
360
378
102
}
330
2A
100
AcDbVisualStyle
  2
Dim
 70
    11
 71
     2
 72
     2
 73
     0
 90
        0
 40
-0.6
 41
-30.0
 62
     5
 63
     7
 74
     1
 91
        4
 64
     7
 65
   257
 75
     1
175
     1
 42
1.0
 92
        8
 66
     7
 43
1.0
 76
     1
 77
     6
 78
     2
 67
     7
 79
     5
170
     0
171
     0
290
     0
174
     0
 93
        1
 44
-50.0
173
     0
291
     1
 45
0.0
1001
ACAD
1000
AcDbSavedByObjectVersion
1070
     0
  0
VISUALSTYLE
  5
39
102
{ACAD_REACTORS
330
2A
102
}
102
{ACAD_XDICTIONARY
360
380
102
}
330
2A
100
AcDbVisualStyle
  2
Facepattern
 70
    15
 71
     2
 72
     2
 73
     0
 90
        0
 40
-0.6
 41
-30.0
 62
     5
 63
     7
 74
     1
 91
        4
 64
     7
 65
   257
 75
     1
175
     1
 42
1.0
 92
        8
 66
     7
 43
1.0
 76
     1
 77
     6
 78
     2
 67
     7
 79
     5
170
     0
171
     0
290
     0
174
     0
 93
        1
 44
0.0
173
     0
291
     1
 45
0.0
1001
ACAD
1000
AcDbSavedByObjectVersion
1070
     0
  0
VISUALSTYLE
  5
2B
102
{ACAD_REACTORS
330
2A
102
}
102
{ACAD_XDICTIONARY
360
364
102
}
330
2A
100
AcDbVisualStyle
  2
Flat
 70
     0
 71
     2
 72
     1
 73
     1
 90
        2
 40
-0.6
 41
30.0
 62
     5
 63
     7
 74
     0
 91
        4
 64
     7
 65
   257
 75
     1
175
     1
 42
1.0
 92
        8
 66
     7
 43
1.0
 76
     1
 77
     6
 78
     2
 67
     7
 79
     5
170
     0
171
     0
290
     0
174
     0
 93
       13
 44
0.0
173
     0
291
     1
 45
0.0
1001
ACAD
1000
AcDbSavedByObjectVersion
1070
     0
  0
VISUALSTYLE
  5
2C
102
{ACAD_REACTORS
330
2A
102
}
102
{ACAD_XDICTIONARY
360
366
102
}
330
2A
100
AcDbVisualStyle
  2
FlatWithEdges
 70
     1
 71
     2
 72
     1
 73
     1
 90
        2
 40
-0.6
 41
30.0
 62
     5
 63
     7
 74
     1
 91
        4
 64
     7
 65
   257
 75
     1
175
     1
 42
1.0
 92
        0
 66
   257
 43
1.0
 76
     1
 77
     6
 78
     2
 67
     7
 79
     5
170
     0
171
     0
290
     0
174
     0
 93
       13
 44
0.0
173
     0
291
     1
 45
0.0
1001
ACAD
1000
AcDbSavedByObjectVersion
1070
     0
  0
VISUALSTYLE
  5
2D
102
{ACAD_REACTORS
330
2A
102
}
102
{ACAD_XDICTIONARY
360
368
102
}
330
2A
100
AcDbVisualStyle
  2
Gouraud
 70
     2
 71
     2
 72
     2
 73
     1
 90
        2
 40
-0.6
 41
30.0
 62
     5
 63
     7
 74
     0
 91
        4
 64
     7
 65
   257
 75
     1
175
     1
 42
1.0
 92
        0
 66
     7
 43
1.0
 76
     1
 77
     6
 78
     2
 67
     7
 79
     5
170
     0
171
     0
290
     0
174
     0
 93
       13
 44
0.0
173
     0
291
     1
 45
0.0
1001
ACAD
1000
AcDbSavedByObjectVersion
1070
     0
  0
VISUALSTYLE
  5
2E
102
{ACAD_REACTORS
330
2A
102
}
102
{ACAD_XDICTIONARY
360
36A
102
}
330
2A
100
AcDbVisualStyle
  2
GouraudWithEdges
 70
     3
 71
     2
 72
     2
 73
     1
 90
        2
 40
-0.6
 41
30.0
 62
     5
 63
     7
 74
     1
 91
        4
 64
     7
 65
   257
 75
     1
175
     1
 42
1.0
 92
        0
 66
   257
 43
1.0
 76
     1
 77
     6
 78
     2
 67
     7
 79
     5
170
     0
171
     0
290
     0
174
     0
 93
       13
 44
0.0
173
     0
291
     1
 45
0.0
1001
ACAD
1000
AcDbSavedByObjectVersion
1070
     0
  0
VISUALSTYLE
  5
38
102
{ACAD_REACTORS
330
2A
102
}
102
{ACAD_XDICTIONARY
360
37E
102
}
330
2A
100
AcDbVisualStyle
  2
Linepattern
 70
    14
 71
     2
 72
     2
 73
     0
 90
        0
 40
-0.6
 41
-30.0
 62
     5
 63
     7
 74
     1
 91
        4
 64
     7
 65
   257
 75
     7
175
     7
 42
1.0
 92
        8
 66
     7
 43
1.0
 76
     1
 77
     6
 78
     2
 67
     7
 79
     5
170
     0
171
     0
290
     0
174
     0
 93
        1
 44
0.0
173
     0
291
     1
 45
0.0
1001
ACAD
1000
AcDbSavedByObjectVersion
1070
     0
  0
VISUALSTYLE
  5
33
102
{ACAD_REACTORS
330
2A
102
}
102
{ACAD_XDICTIONARY
360
374
102
}
330
2A
100
AcDbVisualStyle
  2
Realistic
 70
     8
 71
     2
 72
     2
 73
     0
 90
        0
 40
-0.6
 41
-30.0
 62
     5
 63
     7
 74
     1
 91
        0
 64
     7
 65
   257
 75
     1
175
     1
 42
1.0
 92
        8
 66
     8
 43
1.0
 76
     1
 77
     6
 78
     2
 67
     7
 79
     5
170
     0
171
     0
290
     0
174
     0
 93
       13
 44
0.0
173
     0
291
     0
 45
0.0
1001
ACAD
1000
AcDbSavedByObjectVersion
1070
     0
  0
VISUALSTYLE
  5
37
102
{ACAD_REACTORS
330
2A
102
}
102
{ACAD_XDICTIONARY
360
37C
102
}
330
2A
100
AcDbVisualStyle
  2
Thicken
 70
    13
 71
     2
 72
     2
 73
     0
 90
        0
 40
-0.6
 41
-30.0
 62
     5
 63
     7
 74
     1
 91
        4
 64
     7
 65
   257
 75
     1
175
     1
 42
1.0
 92
       12
 66
     7
 43
1.0
 76
     1
 77
     6
 78
     2
 67
     7
 79
     5
170
     0
171
     0
290
     0
174
     0
 93
        1
 44
0.0
173
     0
291
     1
 45
0.0
1001
ACAD
1000
AcDbSavedByObjectVersion
1070
     0
  0
DICTIONARYVAR
  5
362
102
{ACAD_REACTORS
330
35F
102
}
330
35F
100
DictionaryVariables
280
     0
  1
2
  0
DICTIONARYVAR
  5
363
102
{ACAD_REACTORS
330
35F
102
}
330
35F
100
DictionaryVariables
280
     0
  1
1
  0
DICTIONARY
  5
386
330
3D
100
AcDbDictionary
280
     1
281
     1
  3
ACAD_XREC_ROUNDTRIP
360
387
  0
DICTIONARY
  5
384
330
3C
100
AcDbDictionary
280
     1
281
     1
  3
ACAD_XREC_ROUNDTRIP
360
385
  0
DICTIONARY
  5
388
330
3E
100
AcDbDictionary
280
     1
281
     1
  3
ACAD_XREC_ROUNDTRIP
360
389
  0
DICTIONARY
  5
36C
330
2F
100
AcDbDictionary
280
     1
281
     1
  3
ACAD_XREC_ROUNDTRIP
360
36D
  0
DICTIONARY
  5
370
330
31
100
AcDbDictionary
280
     1
281
     1
  3
ACAD_XREC_ROUNDTRIP
360
371
  0
DICTIONARY
  5
36E
330
30
100
AcDbDictionary
280
     1
281
     1
  3
ACAD_XREC_ROUNDTRIP
360
36F
  0
DICTIONARY
  5
372
330
32
100
AcDbDictionary
280
     1
281
     1
  3
ACAD_XREC_ROUNDTRIP
360
373
  0
DICTIONARY
  5
37A
330
36
100
AcDbDictionary
280
     1
281
     1
  3
ACAD_XREC_ROUNDTRIP
360
37B
  0
DICTIONARY
  5
382
330
3A
100
AcDbDictionary
280
     1
281
     1
  3
ACAD_XREC_ROUNDTRIP
360
383
  0
DICTIONARY
  5
376
330
34
100
AcDbDictionary
280
     1
281
     1
  3
ACAD_XREC_ROUNDTRIP
360
377
  0
DICTIONARY
  5
378
330
35
100
AcDbDictionary
280
     1
281
     1
  3
ACAD_XREC_ROUNDTRIP
360
379
  0
DICTIONARY
  5
380
330
39
100
AcDbDictionary
280
     1
281
     1
  3
ACAD_XREC_ROUNDTRIP
360
381
  0
DICTIONARY
  5
364
330
2B
100
AcDbDictionary
280
     1
281
     1
  3
ACAD_XREC_ROUNDTRIP
360
365
  0
DICTIONARY
  5
366
330
2C
100
AcDbDictionary
280
     1
281
     1
  3
ACAD_XREC_ROUNDTRIP
360
367
  0
DICTIONARY
  5
368
330
2D
100
AcDbDictionary
280
     1
281
     1
  3
ACAD_XREC_ROUNDTRIP
360
369
  0
DICTIONARY
  5
36A
330
2E
100
AcDbDictionary
280
     1
281
     1
  3
ACAD_XREC_ROUNDTRIP
360
36B
  0
DICTIONARY
  5
37E
330
38
100
AcDbDictionary
280
     1
281
     1
  3
ACAD_XREC_ROUNDTRIP
360
37F
  0
DICTIONARY
  5
374
330
33
100
AcDbDictionary
280
     1
281
     1
  3
ACAD_XREC_ROUNDTRIP
360
375
  0
DICTIONARY
  5
37C
330
37
100
AcDbDictionary
280
     1
281
     1
  3
ACAD_XREC_ROUNDTRIP
360
37D
  0
XRECORD
  5
387
102
{ACAD_REACTORS
330
386
102
}
330
386
100
AcDbXrecord
280
     1
102
MATERIAL
148
0.0
149
0.0
149
0.0
 93
        0
 94
      127
282
     0
 72
     1
 77
     1
171
     1
175
     1
179
     1
273
     0
  0
XRECORD
  5
385
102
{ACAD_REACTORS
330
384
102
}
330
384
100
AcDbXrecord
280
     1
102
MATERIAL
148
0.0
149
0.0
149
0.0
 93
        0
 94
      127
282
     0
 72
     1
 77
     1
171
     1
175
     1
179
     1
273
     0
  0
XRECORD
  5
389
102
{ACAD_REACTORS
330
388
102
}
330
388
100
AcDbXrecord
280
     1
102
MATERIAL
148
0.0
149
0.0
149
0.0
 93
        0
 94
      127
282
     0
 72
     1
 77
     1
171
     1
175
     1
179
     1
273
     0
  0
XRECORD
  5
36D
102
{ACAD_REACTORS
330
36C
102
}
330
36C
100
AcDbXrecord
280
     1
102
RTVSPropertyOp0
 70
     1
102
RTVSPropertyOp1
 70
     1
102
RTVSPropertyOp2
 70
     1
102
RTVSPropertyOp3
 70
     1
102
RTVSPropertyOp4
 70
     1
102
RTVSPropertyOp5
 70
     1
102
RTVSPropertyOp6
 70
     1
102
RTVSPropertyOp7
 70
     1
102
RTVSPropertyOp8
 70
     1
102
RTVSPropertyOp9
 70
     1
102
RTVSPropertyOp10
 70
     1
102
RTVSPropertyOp11
 70
     1
102
RTVSPropertyOp12
 70
     1
102
RTVSPropertyOp13
 70
     1
102
RTVSPropertyOp14
 70
     1
102
RTVSPropertyOp15
 70
     1
102
RTVSPropertyOp16
 70
     1
102
RTVSPropertyOp17
 70
     1
102
RTVSPropertyOp18
 70
     1
102
RTVSPropertyOp19
 70
     1
102
RTVSPropertyOp20
 70
     1
102
RTVSPropertyOp21
 70
     1
102
RTVSPropertyOp22
 70
     1
102
RTVSPropertyOp23
 70
     1
102
RTVSPropertyOp24
 70
     1
102
RTVSPropertyOp25
 70
     1
102
RTVSPropertyOp26
 70
     1
102
RTVSPropertyOp27
 70
     1
102
RTVSPropertyOp28
 70
     1
102
RTVSPropertyOp29
 70
     1
102
RTVSPropertyOp30
 70
     1
102
RTVSPropertyOp31
 70
     1
102
RTVSPropertyOp32
 70
     1
  0
XRECORD
  5
371
102
{ACAD_REACTORS
330
370
102
}
330
370
100
AcDbXrecord
280
     1
102
RTVSPropertyOp0
 70
     1
102
RTVSPropertyOp1
 70
     1
102
RTVSPropertyOp2
 70
     1
102
RTVSPropertyOp3
 70
     1
102
RTVSPropertyOp4
 70
     1
102
RTVSPropertyOp5
 70
     1
102
RTVSPropertyOp6
 70
     1
102
RTVSPropertyOp7
 70
     1
102
RTVSPropertyOp8
 70
     1
102
RTVSPropertyOp9
 70
     1
102
RTVSPropertyOp10
 70
     1
102
RTVSPropertyOp11
 70
     1
102
RTVSPropertyOp12
 70
     1
102
RTVSPropertyOp13
 70
     1
102
RTVSPropertyOp14
 70
     1
102
RTVSPropertyOp15
 70
     1
102
RTVSPropertyOp16
 70
     1
102
RTVSPropertyOp17
 70
     1
102
RTVSPropertyOp18
 70
     1
102
RTVSPropertyOp19
 70
     1
102
RTVSPropertyOp20
 70
     1
102
RTVSPropertyOp21
 70
     1
102
RTVSPropertyOp22
 70
     1
102
RTVSPropertyOp23
 70
     1
102
RTVSPropertyOp24
 70
     1
102
RTVSPropertyOp25
 70
     1
102
RTVSPropertyOp26
 70
     1
102
RTVSPropertyOp27
 70
     1
102
RTVSPropertyOp28
 70
     1
102
RTVSPropertyOp29
 70
     1
102
RTVSPropertyOp30
 70
     1
102
RTVSPropertyOp31
 70
     1
102
RTVSPropertyOp32
 70
     1
  0
XRECORD
  5
36F
102
{ACAD_REACTORS
330
36E
102
}
330
36E
100
AcDbXrecord
280
     1
102
RTVSPropertyOp0
 70
     1
102
RTVSPropertyOp1
 70
     1
102
RTVSPropertyOp2
 70
     1
102
RTVSPropertyOp3
 70
     1
102
RTVSPropertyOp4
 70
     1
102
RTVSPropertyOp5
 70
     1
102
RTVSPropertyOp6
 70
     1
102
RTVSPropertyOp7
 70
     1
102
RTVSPropertyOp8
 70
     1
102
RTVSPropertyOp9
 70
     1
102
RTVSPropertyOp10
 70
     1
102
RTVSPropertyOp11
 70
     1
102
RTVSPropertyOp12
 70
     1
102
RTVSPropertyOp13
 70
     1
102
RTVSPropertyOp14
 70
     1
102
RTVSPropertyOp15
 70
     1
102
RTVSPropertyOp16
 70
     1
102
RTVSPropertyOp17
 70
     1
102
RTVSPropertyOp18
 70
     1
102
RTVSPropertyOp19
 70
     1
102
RTVSPropertyOp20
 70
     1
102
RTVSPropertyOp21
 70
     1
102
RTVSPropertyOp22
 70
     1
102
RTVSPropertyOp23
 70
     1
102
RTVSPropertyOp24
 70
     1
102
RTVSPropertyOp25
 70
     1
102
RTVSPropertyOp26
 70
     1
102
RTVSPropertyOp27
 70
     1
102
RTVSPropertyOp28
 70
     1
102
RTVSPropertyOp29
 70
     1
102
RTVSPropertyOp30
 70
     1
102
RTVSPropertyOp31
 70
     1
102
RTVSPropertyOp32
 70
     1
  0
XRECORD
  5
373
102
{ACAD_REACTORS
330
372
102
}
330
372
100
AcDbXrecord
280
     1
102
RTVSPropertyOp0
 70
     1
102
RTVSPropertyOp1
 70
     1
102
RTVSPropertyOp2
 70
     1
102
RTVSPropertyOp3
 70
     1
102
RTVSPropertyOp4
 70
     1
102
RTVSPropertyOp5
 70
     1
102
RTVSPropertyOp6
 70
     1
102
RTVSPropertyOp7
 70
     1
102
RTVSPropertyOp8
 70
     1
102
RTVSPropertyOp9
 70
     1
102
RTVSPropertyOp10
 70
     1
102
RTVSPropertyOp11
 70
     1
102
RTVSPropertyOp12
 70
     1
102
RTVSPropertyOp13
 70
     1
102
RTVSPropertyOp14
 70
     1
102
RTVSPropertyOp15
 70
     1
102
RTVSPropertyOp16
 70
     1
102
RTVSPropertyOp17
 70
     1
102
RTVSPropertyOp18
 70
     1
102
RTVSPropertyOp19
 70
     1
102
RTVSPropertyOp20
 70
     1
102
RTVSPropertyOp21
 70
     1
102
RTVSPropertyOp22
 70
     1
102
RTVSPropertyOp23
 70
     1
102
RTVSPropertyOp24
 70
     1
102
RTVSPropertyOp25
 70
     1
102
RTVSPropertyOp26
 70
     1
102
RTVSPropertyOp27
 70
     1
102
RTVSPropertyOp28
 70
     1
102
RTVSPropertyOp29
 70
     1
102
RTVSPropertyOp30
 70
     1
102
RTVSPropertyOp31
 70
     1
102
RTVSPropertyOp32
 70
     1
  0
XRECORD
  5
37B
102
{ACAD_REACTORS
330
37A
102
}
330
37A
100
AcDbXrecord
280
     1
102
RTVSPropertyOp0
 70
     1
102
RTVSPropertyOp1
 70
     1
102
RTVSPropertyOp2
 70
     1
102
RTVSPropertyOp3
 70
     1
102
RTVSPropertyOp4
 70
     1
102
RTVSPropertyOp5
 70
     1
102
RTVSPropertyOp6
 70
     1
102
RTVSPropertyOp7
 70
     1
102
RTVSPropertyOp8
 70
     1
102
RTVSPropertyOp9
 70
     1
102
RTVSPropertyOp10
 70
     1
102
RTVSPropertyOp11
 70
     1
102
RTVSPropertyOp12
 70
     1
102
RTVSPropertyOp13
 70
     1
102
RTVSPropertyOp14
 70
     1
102
RTVSPropertyOp15
 70
     1
102
RTVSPropertyOp16
 70
     1
102
RTVSPropertyOp17
 70
     1
102
RTVSPropertyOp18
 70
     1
102
RTVSPropertyOp19
 70
     1
102
RTVSPropertyOp20
 70
     1
102
RTVSPropertyOp21
 70
     1
102
RTVSPropertyOp22
 70
     1
102
RTVSPropertyOp23
 70
     1
102
RTVSPropertyOp24
 70
     1
102
RTVSPropertyOp25
 70
     1
102
RTVSPropertyOp26
 70
     1
102
RTVSPropertyOp27
 70
     1
102
RTVSPropertyOp28
 70
     1
102
RTVSPropertyOp29
 70
     1
102
RTVSPropertyOp30
 70
     1
102
RTVSPropertyOp31
 70
     1
102
RTVSPropertyOp32
 70
     1
  0
XRECORD
  5
383
102
{ACAD_REACTORS
330
382
102
}
330
382
100
AcDbXrecord
280
     1
102
RTVSPropertyOp0
 70
     1
102
RTVSPropertyOp1
 70
     1
102
RTVSPropertyOp2
 70
     1
102
RTVSPropertyOp3
 70
     1
102
RTVSPropertyOp4
 70
     1
102
RTVSPropertyOp5
 70
     1
102
RTVSPropertyOp6
 70
     1
102
RTVSPropertyOp7
 70
     1
102
RTVSPropertyOp8
 70
     1
102
RTVSPropertyOp9
 70
     1
102
RTVSPropertyOp10
 70
     1
102
RTVSPropertyOp11
 70
     1
102
RTVSPropertyOp12
 70
     1
102
RTVSPropertyOp13
 70
     1
102
RTVSPropertyOp14
 70
     1
102
RTVSPropertyOp15
 70
     1
102
RTVSPropertyOp16
 70
     1
102
RTVSPropertyOp17
 70
     1
102
RTVSPropertyOp18
 70
     1
102
RTVSPropertyOp19
 70
     1
102
RTVSPropertyOp20
 70
     1
102
RTVSPropertyOp21
 70
     1
102
RTVSPropertyOp22
 70
     1
102
RTVSPropertyOp23
 70
     1
102
RTVSPropertyOp24
 70
     1
102
RTVSPropertyOp25
 70
     1
102
RTVSPropertyOp26
 70
     1
102
RTVSPropertyOp27
 70
     1
102
RTVSPropertyOp28
 70
     1
102
RTVSPropertyOp29
 70
     1
102
RTVSPropertyOp30
 70
     1
102
RTVSPropertyOp31
 70
     1
102
RTVSPropertyOp32
 70
     1
  0
XRECORD
  5
377
102
{ACAD_REACTORS
330
376
102
}
330
376
100
AcDbXrecord
280
     1
102
RTVSPropertyOp0
 70
     1
102
RTVSPropertyOp1
 70
     1
102
RTVSPropertyOp2
 70
     1
102
RTVSPropertyOp3
 70
     1
102
RTVSPropertyOp4
 70
     1
102
RTVSPropertyOp5
 70
     1
102
RTVSPropertyOp6
 70
     1
102
RTVSPropertyOp7
 70
     1
102
RTVSPropertyOp8
 70
     1
102
RTVSPropertyOp9
 70
     1
102
RTVSPropertyOp10
 70
     1
102
RTVSPropertyOp11
 70
     1
102
RTVSPropertyOp12
 70
     1
102
RTVSPropertyOp13
 70
     1
102
RTVSPropertyOp14
 70
     1
102
RTVSPropertyOp15
 70
     1
102
RTVSPropertyOp16
 70
     1
102
RTVSPropertyOp17
 70
     1
102
RTVSPropertyOp18
 70
     1
102
RTVSPropertyOp19
 70
     1
102
RTVSPropertyOp20
 70
     1
102
RTVSPropertyOp21
 70
     1
102
RTVSPropertyOp22
 70
     1
102
RTVSPropertyOp23
 70
     1
102
RTVSPropertyOp24
 70
     1
102
RTVSPropertyOp25
 70
     1
102
RTVSPropertyOp26
 70
     1
102
RTVSPropertyOp27
 70
     1
102
RTVSPropertyOp28
 70
     1
102
RTVSPropertyOp29
 70
     1
102
RTVSPropertyOp30
 70
     1
102
RTVSPropertyOp31
 70
     1
102
RTVSPropertyOp32
 70
     1
  0
XRECORD
  5
379
102
{ACAD_REACTORS
330
378
102
}
330
378
100
AcDbXrecord
280
     1
102
RTVSPropertyOp0
 70
     1
102
RTVSPropertyOp1
 70
     1
102
RTVSPropertyOp2
 70
     1
102
RTVSPropertyOp3
 70
     1
102
RTVSPropertyOp4
 70
     1
102
RTVSPropertyOp5
 70
     1
102
RTVSPropertyOp6
 70
     1
102
RTVSPropertyOp7
 70
     1
102
RTVSPropertyOp8
 70
     1
102
RTVSPropertyOp9
 70
     1
102
RTVSPropertyOp10
 70
     1
102
RTVSPropertyOp11
 70
     1
102
RTVSPropertyOp12
 70
     1
102
RTVSPropertyOp13
 70
     1
102
RTVSPropertyOp14
 70
     1
102
RTVSPropertyOp15
 70
     1
102
RTVSPropertyOp16
 70
     1
102
RTVSPropertyOp17
 70
     1
102
RTVSPropertyOp18
 70
     1
102
RTVSPropertyOp19
 70
     1
102
RTVSPropertyOp20
 70
     1
102
RTVSPropertyOp21
 70
     1
102
RTVSPropertyOp22
 70
     1
102
RTVSPropertyOp23
 70
     1
102
RTVSPropertyOp24
 70
     1
102
RTVSPropertyOp25
 70
     1
102
RTVSPropertyOp26
 70
     1
102
RTVSPropertyOp27
 70
     1
102
RTVSPropertyOp28
 70
     1
102
RTVSPropertyOp29
 70
     1
102
RTVSPropertyOp30
 70
     1
102
RTVSPropertyOp31
 70
     1
102
RTVSPropertyOp32
 70
     1
  0
XRECORD
  5
381
102
{ACAD_REACTORS
330
380
102
}
330
380
100
AcDbXrecord
280
     1
102
RTVSPropertyOp0
 70
     1
102
RTVSPropertyOp1
 70
     1
102
RTVSPropertyOp2
 70
     1
102
RTVSPropertyOp3
 70
     1
102
RTVSPropertyOp4
 70
     1
102
RTVSPropertyOp5
 70
     1
102
RTVSPropertyOp6
 70
     1
102
RTVSPropertyOp7
 70
     1
102
RTVSPropertyOp8
 70
     1
102
RTVSPropertyOp9
 70
     1
102
RTVSPropertyOp10
 70
     1
102
RTVSPropertyOp11
 70
     1
102
RTVSPropertyOp12
 70
     1
102
RTVSPropertyOp13
 70
     1
102
RTVSPropertyOp14
 70
     1
102
RTVSPropertyOp15
 70
     1
102
RTVSPropertyOp16
 70
     1
102
RTVSPropertyOp17
 70
     1
102
RTVSPropertyOp18
 70
     1
102
RTVSPropertyOp19
 70
     1
102
RTVSPropertyOp20
 70
     1
102
RTVSPropertyOp21
 70
     1
102
RTVSPropertyOp22
 70
     1
102
RTVSPropertyOp23
 70
     1
102
RTVSPropertyOp24
 70
     1
102
RTVSPropertyOp25
 70
     1
102
RTVSPropertyOp26
 70
     1
102
RTVSPropertyOp27
 70
     1
102
RTVSPropertyOp28
 70
     1
102
RTVSPropertyOp29
 70
     1
102
RTVSPropertyOp30
 70
     1
102
RTVSPropertyOp31
 70
     1
102
RTVSPropertyOp32
 70
     1
  0
XRECORD
  5
365
102
{ACAD_REACTORS
330
364
102
}
330
364
100
AcDbXrecord
280
     1
102
RTVSPropertyOp0
 70
     1
102
RTVSPropertyOp1
 70
     1
102
RTVSPropertyOp2
 70
     1
102
RTVSPropertyOp3
 70
     1
102
RTVSPropertyOp4
 70
     1
102
RTVSPropertyOp5
 70
     1
102
RTVSPropertyOp6
 70
     1
102
RTVSPropertyOp7
 70
     1
102
RTVSPropertyOp8
 70
     1
102
RTVSPropertyOp9
 70
     1
102
RTVSPropertyOp10
 70
     1
102
RTVSPropertyOp11
 70
     1
102
RTVSPropertyOp12
 70
     1
102
RTVSPropertyOp13
 70
     1
102
RTVSPropertyOp14
 70
     1
102
RTVSPropertyOp15
 70
     1
102
RTVSPropertyOp16
 70
     1
102
RTVSPropertyOp17
 70
     1
102
RTVSPropertyOp18
 70
     1
102
RTVSPropertyOp19
 70
     1
102
RTVSPropertyOp20
 70
     1
102
RTVSPropertyOp21
 70
     1
102
RTVSPropertyOp22
 70
     1
102
RTVSPropertyOp23
 70
     1
102
RTVSPropertyOp24
 70
     1
102
RTVSPropertyOp25
 70
     1
102
RTVSPropertyOp26
 70
     1
102
RTVSPropertyOp27
 70
     1
102
RTVSPropertyOp28
 70
     1
102
RTVSPropertyOp29
 70
     1
102
RTVSPropertyOp30
 70
     1
102
RTVSPropertyOp31
 70
     1
102
RTVSPropertyOp32
 70
     1
  0
XRECORD
  5
367
102
{ACAD_REACTORS
330
366
102
}
330
366
100
AcDbXrecord
280
     1
102
RTVSPropertyOp0
 70
     1
102
RTVSPropertyOp1
 70
     1
102
RTVSPropertyOp2
 70
     1
102
RTVSPropertyOp3
 70
     1
102
RTVSPropertyOp4
 70
     1
102
RTVSPropertyOp5
 70
     1
102
RTVSPropertyOp6
 70
     1
102
RTVSPropertyOp7
 70
     1
102
RTVSPropertyOp8
 70
     1
102
RTVSPropertyOp9
 70
     1
102
RTVSPropertyOp10
 70
     1
102
RTVSPropertyOp11
 70
     1
102
RTVSPropertyOp12
 70
     1
102
RTVSPropertyOp13
 70
     1
102
RTVSPropertyOp14
 70
     1
102
RTVSPropertyOp15
 70
     1
102
RTVSPropertyOp16
 70
     1
102
RTVSPropertyOp17
 70
     1
102
RTVSPropertyOp18
 70
     1
102
RTVSPropertyOp19
 70
     1
102
RTVSPropertyOp20
 70
     1
102
RTVSPropertyOp21
 70
     1
102
RTVSPropertyOp22
 70
     1
102
RTVSPropertyOp23
 70
     1
102
RTVSPropertyOp24
 70
     1
102
RTVSPropertyOp25
 70
     1
102
RTVSPropertyOp26
 70
     1
102
RTVSPropertyOp27
 70
     1
102
RTVSPropertyOp28
 70
     1
102
RTVSPropertyOp29
 70
     1
102
RTVSPropertyOp30
 70
     1
102
RTVSPropertyOp31
 70
     1
102
RTVSPropertyOp32
 70
     1
  0
XRECORD
  5
369
102
{ACAD_REACTORS
330
368
102
}
330
368
100
AcDbXrecord
280
     1
102
RTVSPropertyOp0
 70
     1
102
RTVSPropertyOp1
 70
     1
102
RTVSPropertyOp2
 70
     1
102
RTVSPropertyOp3
 70
     1
102
RTVSPropertyOp4
 70
     1
102
RTVSPropertyOp5
 70
     1
102
RTVSPropertyOp6
 70
     1
102
RTVSPropertyOp7
 70
     1
102
RTVSPropertyOp8
 70
     1
102
RTVSPropertyOp9
 70
     1
102
RTVSPropertyOp10
 70
     1
102
RTVSPropertyOp11
 70
     1
102
RTVSPropertyOp12
 70
     1
102
RTVSPropertyOp13
 70
     1
102
RTVSPropertyOp14
 70
     1
102
RTVSPropertyOp15
 70
     1
102
RTVSPropertyOp16
 70
     1
102
RTVSPropertyOp17
 70
     1
102
RTVSPropertyOp18
 70
     1
102
RTVSPropertyOp19
 70
     1
102
RTVSPropertyOp20
 70
     1
102
RTVSPropertyOp21
 70
     1
102
RTVSPropertyOp22
 70
     1
102
RTVSPropertyOp23
 70
     1
102
RTVSPropertyOp24
 70
     1
102
RTVSPropertyOp25
 70
     1
102
RTVSPropertyOp26
 70
     1
102
RTVSPropertyOp27
 70
     1
102
RTVSPropertyOp28
 70
     1
102
RTVSPropertyOp29
 70
     1
102
RTVSPropertyOp30
 70
     1
102
RTVSPropertyOp31
 70
     1
102
RTVSPropertyOp32
 70
     1
  0
XRECORD
  5
36B
102
{ACAD_REACTORS
330
36A
102
}
330
36A
100
AcDbXrecord
280
     1
102
RTVSPropertyOp0
 70
     1
102
RTVSPropertyOp1
 70
     1
102
RTVSPropertyOp2
 70
     1
102
RTVSPropertyOp3
 70
     1
102
RTVSPropertyOp4
 70
     1
102
RTVSPropertyOp5
 70
     1
102
RTVSPropertyOp6
 70
     1
102
RTVSPropertyOp7
 70
     1
102
RTVSPropertyOp8
 70
     1
102
RTVSPropertyOp9
 70
     1
102
RTVSPropertyOp10
 70
     1
102
RTVSPropertyOp11
 70
     1
102
RTVSPropertyOp12
 70
     1
102
RTVSPropertyOp13
 70
     1
102
RTVSPropertyOp14
 70
     1
102
RTVSPropertyOp15
 70
     1
102
RTVSPropertyOp16
 70
     1
102
RTVSPropertyOp17
 70
     1
102
RTVSPropertyOp18
 70
     1
102
RTVSPropertyOp19
 70
     1
102
RTVSPropertyOp20
 70
     1
102
RTVSPropertyOp21
 70
     1
102
RTVSPropertyOp22
 70
     1
102
RTVSPropertyOp23
 70
     1
102
RTVSPropertyOp24
 70
     1
102
RTVSPropertyOp25
 70
     1
102
RTVSPropertyOp26
 70
     1
102
RTVSPropertyOp27
 70
     1
102
RTVSPropertyOp28
 70
     1
102
RTVSPropertyOp29
 70
     1
102
RTVSPropertyOp30
 70
     1
102
RTVSPropertyOp31
 70
     1
102
RTVSPropertyOp32
 70
     1
  0
XRECORD
  5
37F
102
{ACAD_REACTORS
330
37E
102
}
330
37E
100
AcDbXrecord
280
     1
102
RTVSPropertyOp0
 70
     1
102
RTVSPropertyOp1
 70
     1
102
RTVSPropertyOp2
 70
     1
102
RTVSPropertyOp3
 70
     1
102
RTVSPropertyOp4
 70
     1
102
RTVSPropertyOp5
 70
     1
102
RTVSPropertyOp6
 70
     1
102
RTVSPropertyOp7
 70
     1
102
RTVSPropertyOp8
 70
     1
102
RTVSPropertyOp9
 70
     1
102
RTVSPropertyOp10
 70
     1
102
RTVSPropertyOp11
 70
     1
102
RTVSPropertyOp12
 70
     1
102
RTVSPropertyOp13
 70
     1
102
RTVSPropertyOp14
 70
     1
102
RTVSPropertyOp15
 70
     1
102
RTVSPropertyOp16
 70
     1
102
RTVSPropertyOp17
 70
     1
102
RTVSPropertyOp18
 70
     1
102
RTVSPropertyOp19
 70
     1
102
RTVSPropertyOp20
 70
     1
102
RTVSPropertyOp21
 70
     1
102
RTVSPropertyOp22
 70
     1
102
RTVSPropertyOp23
 70
     1
102
RTVSPropertyOp24
 70
     1
102
RTVSPropertyOp25
 70
     1
102
RTVSPropertyOp26
 70
     1
102
RTVSPropertyOp27
 70
     1
102
RTVSPropertyOp28
 70
     1
102
RTVSPropertyOp29
 70
     1
102
RTVSPropertyOp30
 70
     1
102
RTVSPropertyOp31
 70
     1
102
RTVSPropertyOp32
 70
     1
  0
XRECORD
  5
375
102
{ACAD_REACTORS
330
374
102
}
330
374
100
AcDbXrecord
280
     1
102
RTVSPropertyOp0
 70
     1
102
RTVSPropertyOp1
 70
     1
102
RTVSPropertyOp2
 70
     1
102
RTVSPropertyOp3
 70
     1
102
RTVSPropertyOp4
 70
     1
102
RTVSPropertyOp5
 70
     1
102
RTVSPropertyOp6
 70
     1
102
RTVSPropertyOp7
 70
     1
102
RTVSPropertyOp8
 70
     1
102
RTVSPropertyOp9
 70
     1
102
RTVSPropertyOp10
 70
     1
102
RTVSPropertyOp11
 70
     1
102
RTVSPropertyOp12
 70
     1
102
RTVSPropertyOp13
 70
     1
102
RTVSPropertyOp14
 70
     1
102
RTVSPropertyOp15
 70
     1
102
RTVSPropertyOp16
 70
     1
102
RTVSPropertyOp17
 70
     1
102
RTVSPropertyOp18
 70
     1
102
RTVSPropertyOp19
 70
     1
102
RTVSPropertyOp20
 70
     1
102
RTVSPropertyOp21
 70
     1
102
RTVSPropertyOp22
 70
     1
102
RTVSPropertyOp23
 70
     1
102
RTVSPropertyOp24
 70
     1
102
RTVSPropertyOp25
 70
     1
102
RTVSPropertyOp26
 70
     1
102
RTVSPropertyOp27
 70
     1
102
RTVSPropertyOp28
 70
     1
102
RTVSPropertyOp29
 70
     1
102
RTVSPropertyOp30
 70
     1
102
RTVSPropertyOp31
 70
     1
102
RTVSPropertyOp32
 70
     1
  0
XRECORD
  5
37D
102
{ACAD_REACTORS
330
37C
102
}
330
37C
100
AcDbXrecord
280
     1
102
RTVSPropertyOp0
 70
     1
102
RTVSPropertyOp1
 70
     1
102
RTVSPropertyOp2
 70
     1
102
RTVSPropertyOp3
 70
     1
102
RTVSPropertyOp4
 70
     1
102
RTVSPropertyOp5
 70
     1
102
RTVSPropertyOp6
 70
     1
102
RTVSPropertyOp7
 70
     1
102
RTVSPropertyOp8
 70
     1
102
RTVSPropertyOp9
 70
     1
102
RTVSPropertyOp10
 70
     1
102
RTVSPropertyOp11
 70
     1
102
RTVSPropertyOp12
 70
     1
102
RTVSPropertyOp13
 70
     1
102
RTVSPropertyOp14
 70
     1
102
RTVSPropertyOp15
 70
     1
102
RTVSPropertyOp16
 70
     1
102
RTVSPropertyOp17
 70
     1
102
RTVSPropertyOp18
 70
     1
102
RTVSPropertyOp19
 70
     1
102
RTVSPropertyOp20
 70
     1
102
RTVSPropertyOp21
 70
     1
102
RTVSPropertyOp22
 70
     1
102
RTVSPropertyOp23
 70
     1
102
RTVSPropertyOp24
 70
     1
102
RTVSPropertyOp25
 70
     1
102
RTVSPropertyOp26
 70
     1
102
RTVSPropertyOp27
 70
     1
102
RTVSPropertyOp28
 70
     1
102
RTVSPropertyOp29
 70
     1
102
RTVSPropertyOp30
 70
     1
102
RTVSPropertyOp31
 70
     1
102
RTVSPropertyOp32
 70
     1
  0
ENDSEC
  0
EOF
