  0
SECTION
  2
HEADER
  9
$ACADVER
  1
AC1015
  9
$ACADMAINTVER
 70
     6
  9
$DWGCODEPAGE
  3
ANSI_1252
  9
$INSBASE
 10
0.0
 20
0.0
 30
0.0
  9
$EXTMIN
 10
1.000000000000000E+20
 20
1.000000000000000E+20
 30
1.000000000000000E+20
  9
$EXTMAX
 10
-1.000000000000000E+20
 20
-1.000000000000000E+20
 30
-1.000000000000000E+20
  9
$LIMMIN
 10
0.0
 20
0.0
  9
$LIMMAX
 10
12.0
 20
9.0
  9
$ORTHOMODE
 70
     0
  9
$REGENMODE
 70
     1
  9
$FILLMODE
 70
     1
  9
$QTEXTMODE
 70
     0
  9
$MIRRTEXT
 70
     1
  9
$LTSCALE
 40
1.0
  9
$ATTMODE
 70
     1
  9
$TEXTSIZE
 40
0.2
  9
$TRACEWID
 40
0.05
  9
$TEXTSTYLE
  7
Standard
  9
$CLAYER
  8
0
  9
$CELTYPE
  6
ByLayer
  9
$CECOLOR
 62
   256
  9
$CELTSCALE
 40
1.0
  9
$DISPSILH
 70
     0
  9
$DIMSCALE
 40
1.0
  9
$DIMASZ
 40
0.18
  9
$DIMEXO
 40
0.0625
  9
$DIMDLI
 40
0.38
  9
$DIMRND
 40
0.0
  9
$DIMDLE
 40
0.0
  9
$DIMEXE
 40
0.18
  9
$DIMTP
 40
0.0
  9
$DIMTM
 40
0.0
  9
$DIMTXT
 40
0.18
  9
$DIMCEN
 40
0.09
  9
$DIMTSZ
 40
0.0
  9
$DIMTOL
 70
     0
  9
$DIMLIM
 70
     0
  9
$DIMTIH
 70
     1
  9
$DIMTOH
 70
     1
  9
$DIMSE1
 70
     0
  9
$DIMSE2
 70
     0
  9
$DIMTAD
 70
     0
  9
$DIMZIN
 70
     0
  9
$DIMBLK
  1

  9
$DIMASO
 70
     1
  9
$DIMSHO
 70
     1
  9
$DIMPOST
  1

  9
$DIMAPOST
  1

  9
$DIMALT
 70
     0
  9
$DIMALTD
 70
     2
  9
$DIMALTF
 40
25.4
  9
$DIMLFAC
 40
1.0
  9
$DIMTOFL
 70
     0
  9
$DIMTVP
 40
0.0
  9
$DIMTIX
 70
     0
  9
$DIMSOXD
 70
     0
  9
$DIMSAH
 70
     0
  9
$DIMBLK1
  1

  9
$DIMBLK2
  1

  9
$DIMSTYLE
  2
Standard
  9
$DIMCLRD
 70
     0
  9
$DIMCLRE
 70
     0
  9
$DIMCLRT
 70
     0
  9
$DIMTFAC
 40
1.0
  9
$DIMGAP
 40
0.09
  9
$DIMJUST
 70
     0
  9
$DIMSD1
 70
     0
  9
$DIMSD2
 70
     0
  9
$DIMTOLJ
 70
     1
  9
$DIMTZIN
 70
     0
  9
$DIMALTZ
 70
     0
  9
$DIMALTTZ
 70
     0
  9
$DIMUPT
 70
     0
  9
$DIMDEC
 70
     4
  9
$DIMTDEC
 70
     4
  9
$DIMALTU
 70
     2
  9
$DIMALTTD
 70
     2
  9
$DIMTXSTY
  7
Standard
  9
$DIMAUNIT
 70
     0
  9
$DIMADEC
 70
     0
  9
$DIMALTRND
 40
0.0
  9
$DIMAZIN
 70
     0
  9
$DIMDSEP
 70
    46
  9
$DIMATFIT
 70
     3
  9
$DIMFRAC
 70
     0
  9
$DIMLDRBLK
  1

  9
$DIMLUNIT
 70
     2
  9
$DIMLWD
 70
    -2
  9
$DIMLWE
 70
    -2
  9
$DIMTMOVE
 70
     0
  9
$LUNITS
 70
     2
  9
$LUPREC
 70
     4
  9
$SKETCHINC
 40
0.1
  9
$FILLETRAD
 40
0.5
  9
$AUNITS
 70
     0
  9
$AUPREC
 70
     0
  9
$MENU
  1
.
  9
$ELEVATION
 40
0.0
  9
$PELEVATION
 40
0.0
  9
$THICKNESS
 40
0.0
  9
$LIMCHECK
 70
     0
  9
$CHAMFERA
 40
0.5
  9
$CHAMFERB
 40
0.5
  9
$CHAMFERC
 40
1.0
  9
$CHAMFERD
 40
0.0
  9
$SKPOLY
 70
     0
  9
$TDCREATE
 40
2458933.542854039
  9
$TDUCREATE
 40
2458933.501187372
  9
$TDUPDATE
 40
2458933.542854236
  9
$TDUUPDATE
 40
2458933.501187569
  9
$TDINDWG
 40
0.0000000116
  9
$TDUSRTIMER
 40
0.0000000116
  9
$USRTIMER
 70
     1
  9
$ANGBASE
 50
0.0
  9
$ANGDIR
 70
     0
  9
$PDMODE
 70
     0
  9
$PDSIZE
 40
0.0
  9
$PLINEWID
 40
0.0
  9
$SPLFRAME
 70
     0
  9
$SPLINETYPE
 70
     6
  9
$SPLINESEGS
 70
     8
  9
$HANDSEED
  5
39F
  9
$SURFTAB1
 70
     6
  9
$SURFTAB2
 70
     6
  9
$SURFTYPE
 70
     6
  9
$SURFU
 70
     6
  9
$SURFV
 70
     6
  9
$UCSBASE
  2

  9
$UCSNAME
  2

  9
$UCSORG
 10
0.0
 20
0.0
 30
0.0
  9
$UCSXDIR
 10
1.0
 20
0.0
 30
0.0
  9
$UCSYDIR
 10
0.0
 20
1.0
 30
0.0
  9
$UCSORTHOREF
  2

  9
$UCSORTHOVIEW
 70
     0
  9
$UCSORGTOP
 10
0.0
 20
0.0
 30
0.0
  9
$UCSORGBOTTOM
 10
0.0
 20
0.0
 30
0.0
  9
$UCSORGLEFT
 10
0.0
 20
0.0
 30
0.0
  9
$UCSORGRIGHT
 10
0.0
 20
0.0
 30
0.0
  9
$UCSORGFRONT
 10
0.0
 20
0.0
 30
0.0
  9
$UCSORGBACK
 10
0.0
 20
0.0
 30
0.0
  9
$PUCSBASE
  2

  9
$PUCSNAME
  2

  9
$PUCSORG
 10
0.0
 20
0.0
 30
0.0
  9
$PUCSXDIR
 10
1.0
 20
0.0
 30
0.0
  9
$PUCSYDIR
 10
0.0
 20
1.0
 30
0.0
  9
$PUCSORTHOREF
  2

  9
$PUCSORTHOVIEW
 70
     0
  9
$PUCSORGTOP
 10
0.0
 20
0.0
 30
0.0
  9
$PUCSORGBOTTOM
 10
0.0
 20
0.0
 30
0.0
  9
$PUCSORGLEFT
 10
0.0
 20
0.0
 30
0.0
  9
$PUCSORGRIGHT
 10
0.0
 20
0.0
 30
0.0
  9
$PUCSORGFRONT
 10
0.0
 20
0.0
 30
0.0
  9
$PUCSORGBACK
 10
0.0
 20
0.0
 30
0.0
  9
$USERI1
 70
     0
  9
$USERI2
 70
     0
  9
$USERI3
 70
     0
  9
$USERI4
 70
     0
  9
$USERI5
 70
     0
  9
$USERR1
 40
0.0
  9
$USERR2
 40
0.0
  9
$USERR3
 40
0.0
  9
$USERR4
 40
0.0
  9
$USERR5
 40
0.0
  9
$WORLDVIEW
 70
     1
  9
$SHADEDGE
 70
     3
  9
$SHADEDIF
 70
    70
  9
$TILEMODE
 70
     1
  9
$MAXACTVP
 70
    64
  9
$PINSBASE
 10
0.0
 20
0.0
 30
0.0
  9
$PLIMCHECK
 70
     0
  9
$PEXTMIN
 10
1.000000000000000E+20
 20
1.000000000000000E+20
 30
1.000000000000000E+20
  9
$PEXTMAX
 10
-1.000000000000000E+20
 20
-1.000000000000000E+20
 30
-1.000000000000000E+20
  9
$PLIMMIN
 10
0.0
 20
0.0
  9
$PLIMMAX
 10
12.0
 20
9.0
  9
$UNITMODE
 70
     0
  9
$VISRETAIN
 70
     1
  9
$PLINEGEN
 70
     0
  9
$PSLTSCALE
 70
     1
  9
$TREEDEPTH
 70
  3020
  9
$CMLSTYLE
  2
Standard
  9
$CMLJUST
 70
     0
  9
$CMLSCALE
 40
1.0
  9
$PROXYGRAPHICS
 70
     1
  9
$MEASUREMENT
 70
     0
  9
$CELWEIGHT
370
    -1
  9
$ENDCAPS
280
     0
  9
$JOINSTYLE
280
     0
  9
$LWDISPLAY
290
     1
  9
$INSUNITS
 70
     4
  9
$HYPERLINKBASE
  1

  9
$STYLESHEET
  1

  9
$XEDIT
290
     1
  9
$CEPSNTYPE
380
     0
  9
$PSTYLEMODE
290
     1
  9
$FINGERPRINTGUID
  2
{6D90B77F-2B94-4793-B0D3-2AF2F5F6FC0D}
  9
$VERSIONGUID
  2
{FAEB1C32-E019-11D5-929B-00C0DF256EC4}
  9
$EXTNAMES
290
     1
  9
$PSVPSCALE
 40
0.0
  9
$OLESTARTUP
290
     0
  0
ENDSEC
  0
SECTION
  2
CLASSES
  0
CLASS
  1
ACDBDICTIONARYWDFLT
  2
AcDbDictionaryWithDefault
  3
ObjectDBX Classes
 90
        0
280
     0
281
     0
  0
CLASS
  1
VISUALSTYLE
  2
AcDbVisualStyle
  3
ObjectDBX Classes
 90
     4095
280
     0
281
     0
  0
CLASS
  1
MATERIAL
  2
AcDbMaterial
  3
ObjectDBX Classes
 90
     1153
280
     0
281
     0
  0
CLASS
  1
SUN
  2
AcDbSun
  3
SCENEOE
 90
     1024
280
     0
281
     0
  0
CLASS
  1
DICTIONARYVAR
  2
AcDbDictionaryVar
  3
ObjectDBX Classes
 90
        0
280
     0
281
     0
  0
CLASS
  1
ACDBPLACEHOLDER
  2
AcDbPlaceHolder
  3
ObjectDBX Classes
 90
        0
280
     0
281
     0
  0
CLASS
  1
LAYOUT
  2
AcDbLayout
  3
ObjectDBX Classes
 90
        0
280
     0
281
     0
  0
ENDSEC
  0
SECTION
  2
TABLES
  0
TABLE
  2
VPORT
  5
8
330
0
100
AcDbSymbolTable
 70
     1
  0
VPORT
  5
29
330
8
100
AcDbSymbolTableRecord
100
AcDbViewportTableRecord
  2
*Active
 70
     0
 10
0.0
 20
0.0
 11
1.0
 21
1.0
 12
0.0
 22
0.0
 13
0.0
 23
0.0
 14
0.5
 24
0.5
 15
0.5
 25
0.5
 16
0.0
 26
0.0
 36
1.0
 17
103.3638888630479
 27
-148.3430555184698
 37
0.0
 40
119.5916666367687
 41
1.268436578171092
 42
50.0
 43
0.0
 44
0.0
 50
0.0
 51
0.0
 71
     0
 72
   100
 73
     1
 74
     3
 75
     0
 76
     0
 77
     0
 78
     0
281
     0
 65
     1
110
0.0
120
0.0
130
0.0
111
1.0
121
0.0
131
0.0
112
0.0
122
1.0
132
0.0
 79
     0
146
0.0
  0
ENDTAB
  0
TABLE
  2
LTYPE
  5
5
330
0
100
AcDbSymbolTable
 70
     1
  0
LTYPE
  5
14
330
5
100
AcDbSymbolTableRecord
100
AcDbLinetypeTableRecord
  2
ByBlock
 70
     0
  3

 72
    65
 73
     0
 40
0.0
  0
LTYPE
  5
15
330
5
100
AcDbSymbolTableRecord
100
AcDbLinetypeTableRecord
  2
ByLayer
 70
     0
  3

 72
    65
 73
     0
 40
0.0
  0
LTYPE
  5
16
330
5
100
AcDbSymbolTableRecord
100
AcDbLinetypeTableRecord
  2
Continuous
 70
     0
  3
Solid line
 72
    65
 73
     0
 40
0.0
  0
ENDTAB
  0
TABLE
  2
LAYER
  5
2
330
0
100
AcDbSymbolTable
 70
     2
  0
LAYER
  5
10
330
2
100
AcDbSymbolTableRecord
100
AcDbLayerTableRecord
  2
0
 70
     0
 62
     7
  6
Continuous
370
    -3
390
F
  0
LAYER
  5
40
330
2
100
AcDbSymbolTableRecord
100
AcDbLayerTableRecord
  2
Capa 1
 70
     0
 62
     7
  6
Continuous
370
    -3
390
F
  0
ENDTAB
  0
TABLE
  2
STYLE
  5
3
330
0
100
AcDbSymbolTable
 70
     1
  0
STYLE
  5
11
330
3
100
AcDbSymbolTableRecord
100
AcDbTextStyleTableRecord
  2
Standard
 70
     0
 40
0.0
 41
1.0
 50
0.0
 71
     0
 42
0.2
  3
txt
  4

  0
ENDTAB
  0
TABLE
  2
VIEW
  5
6
330
0
100
AcDbSymbolTable
 70
     0
  0
ENDTAB
  0
TABLE
  2
UCS
  5
7
330
0
100
AcDbSymbolTable
 70
     0
  0
ENDTAB
  0
TABLE
  2
APPID
  5
9
330
0
100
AcDbSymbolTable
 70
     1
  0
APPID
  5
12
330
9
100
AcDbSymbolTableRecord
100
AcDbRegAppTableRecord
  2
ACAD
 70
     0
  0
ENDTAB
  0
TABLE
  2
DIMSTYLE
  5
A
330
0
100
AcDbSymbolTable
 70
     1
100
AcDbDimStyleTable
  0
DIMSTYLE
105
27
330
A
100
AcDbSymbolTableRecord
100
AcDbDimStyleTableRecord
  2
Standard
 70
     0
178
     0
340
11
  0
ENDTAB
  0
TABLE
  2
BLOCK_RECORD
  5
1
330
0
100
AcDbSymbolTable
 70
    16
  0
BLOCK_RECORD
  5
1F
330
1
100
AcDbSymbolTableRecord
100
AcDbBlockTableRecord
  2
*Model_Space
340
22
  0
BLOCK_RECORD
  5
1B
330
1
100
AcDbSymbolTableRecord
100
AcDbBlockTableRecord
  2
*Paper_Space
340
1E
  0
BLOCK_RECORD
  5
23
330
1
100
AcDbSymbolTableRecord
100
AcDbBlockTableRecord
  2
*Paper_Space0
340
26
  0
BLOCK_RECORD
  5
182
330
1
100
AcDbSymbolTableRecord
100
AcDbBlockTableRecord
  2
block 2
340
0
102
{BLKREFS
331
183
102
}
  0
BLOCK_RECORD
  5
186
330
1
100
AcDbSymbolTableRecord
100
AcDbBlockTableRecord
  2
block 3
340
0
102
{BLKREFS
331
187
102
}
  0
BLOCK_RECORD
  5
1AB
330
1
100
AcDbSymbolTableRecord
100
AcDbBlockTableRecord
  2
block 4
340
0
102
{BLKREFS
331
1AC
102
}
  0
BLOCK_RECORD
  5
1AF
330
1
100
AcDbSymbolTableRecord
100
AcDbBlockTableRecord
  2
block 5
340
0
102
{BLKREFS
331
1B0
102
}
  0
BLOCK_RECORD
  5
1D6
330
1
100
AcDbSymbolTableRecord
100
AcDbBlockTableRecord
  2
block 6
340
0
102
{BLKREFS
331
1D7
102
}
  0
BLOCK_RECORD
  5
1DA
330
1
100
AcDbSymbolTableRecord
100
AcDbBlockTableRecord
  2
block 7
340
0
102
{BLKREFS
331
1DB
102
}
  0
BLOCK_RECORD
  5
1F4
330
1
100
AcDbSymbolTableRecord
100
AcDbBlockTableRecord
  2
block 8
340
0
102
{BLKREFS
331
1F5
102
}
  0
BLOCK_RECORD
  5
1F8
330
1
100
AcDbSymbolTableRecord
100
AcDbBlockTableRecord
  2
block 9
340
0
102
{BLKREFS
331
1F9
102
}
  0
BLOCK_RECORD
  5
25A
330
1
100
AcDbSymbolTableRecord
100
AcDbBlockTableRecord
  2
block 10
340
0
102
{BLKREFS
331
25B
102
}
  0
BLOCK_RECORD
  5
269
330
1
100
AcDbSymbolTableRecord
100
AcDbBlockTableRecord
  2
block 11
340
0
102
{BLKREFS
331
26A
102
}
  0
BLOCK_RECORD
  5
271
330
1
100
AcDbSymbolTableRecord
100
AcDbBlockTableRecord
  2
block 12
340
0
102
{BLKREFS
331
272
102
}
  0
BLOCK_RECORD
  5
280
330
1
100
AcDbSymbolTableRecord
100
AcDbBlockTableRecord
  2
block 13
340
0
102
{BLKREFS
331
281
102
}
  0
BLOCK_RECORD
  5
290
330
1
100
AcDbSymbolTableRecord
100
AcDbBlockTableRecord
  2
block 14
340
0
102
{BLKREFS
331
291
102
}
  0
BLOCK_RECORD
  5
313
330
1
100
AcDbSymbolTableRecord
100
AcDbBlockTableRecord
  2
block 15
340
0
102
{BLKREFS
331
314
102
}
  0
BLOCK_RECORD
  5
325
330
1
100
AcDbSymbolTableRecord
100
AcDbBlockTableRecord
  2
block 16
340
0
102
{BLKREFS
331
326
102
}
  0
ENDTAB
  0
ENDSEC
  0
SECTION
  2
BLOCKS
  0
BLOCK
  5
20
330
1F
100
AcDbEntity
  8
0
100
AcDbBlockBegin
  2
*Model_Space
 70
     0
 10
0.0
 20
0.0
 30
0.0
  3
*Model_Space
  1

  0
ENDBLK
  5
21
330
1F
100
AcDbEntity
  8
0
100
AcDbBlockEnd
  0
BLOCK
  5
1C
330
1B
100
AcDbEntity
 67
     1
  8
0
100
AcDbBlockBegin
  2
*Paper_Space
 70
     0
 10
0.0
 20
0.0
 30
0.0
  3
*Paper_Space
  1

  0
ENDBLK
  5
1D
330
1B
100
AcDbEntity
 67
     1
  8
0
100
AcDbBlockEnd
  0
BLOCK
  5
24
330
23
100
AcDbEntity
  8
0
100
AcDbBlockBegin
  2
*Paper_Space0
 70
     0
 10
0.0
 20
0.0
 30
0.0
  3
*Paper_Space0
  1

  0
ENDBLK
  5
25
330
23
100
AcDbEntity
  8
0
100
AcDbBlockEnd
  0
BLOCK
  5
184
330
182
100
AcDbEntity
  8
0
100
AcDbBlockBegin
  2
block 2
 70
     0
 10
0.0
 20
0.0
 30
0.0
  3
block 2
  1

  0
INSERT
  5
187
330
182
100
AcDbEntity
  8
Capa 1
100
AcDbBlockReference
  2
block 3
 10
0.0
 20
0.0
 30
0.0
  0
SPLINE
  5
18D
330
182
100
AcDbEntity
  8
Capa 1
 62
   250
370
     9
100
AcDbSpline
210
0.0
220
0.0
230
1.0
 70
    11
 71
     3
 72
    29
 73
    25
 74
     0
 42
0.0000000001
 43
0.0000000001
 12
1.0
 22
0.0
 32
0.0
 13
1.0
 23
0.0
 33
0.0
 40
0.0
 40
0.0
 40
0.0
 40
0.0
 40
1.0
 40
1.0
 40
1.0
 40
2.0
 40
2.0
 40
2.0
 40
3.0
 40
3.0
 40
3.0
 40
4.0
 40
4.0
 40
4.0
 40
5.0
 40
5.0
 40
5.0
 40
6.0
 40
6.0
 40
6.0
 40
7.0
 40
7.0
 40
7.0
 40
8.0
 40
8.0
 40
8.0
 40
8.0
 10
96.63562399177185
 20
-125.8976181352569
 30
0.0
 10
96.63562399177185
 20
-125.8976181352569
 30
0.0
 10
96.15055836828775
 20
-125.8976181352569
 30
0.0
 10
96.15055836828775
 20
-125.8976181352569
 30
0.0
 10
95.76250281282907
 20
-125.8976181352569
 30
0.0
 10
95.44500281290858
 20
-125.5801181353364
 30
0.0
 10
95.44500281290858
 20
-125.1920625798777
 30
0.0
 10
95.44500281290858
 20
-125.1920625798777
 30
0.0
 10
95.44500281290858
 20
-123.2297429890179
 30
0.0
 10
95.44500281290858
 20
-123.2297429890179
 30
0.0
 10
95.44500281290858
 20
-122.8416874335595
 30
0.0
 10
95.76250281282907
 20
-122.5241874336387
 30
0.0
 10
96.15055836828775
 20
-122.5241874336387
 30
0.0
 10
96.15055836828775
 20
-122.5241874336387
 30
0.0
 10
96.63562399177185
 20
-122.5241874336387
 30
0.0
 10
96.63562399177185
 20
-122.5241874336387
 30
0.0
 10
97.02367954723051
 20
-122.5241874336387
 30
0.0
 10
97.34117954715101
 20
-122.8416874335598
 30
0.0
 10
97.34117954715101
 20
-123.2297429890179
 30
0.0
 10
97.34117954715101
 20
-123.2297429890179
 30
0.0
 10
97.34117954715101
 20
-125.1920625798777
 30
0.0
 10
97.34117954715101
 20
-125.1920625798777
 30
0.0
 10
97.34117954715101
 20
-125.5801181353364
 30
0.0
 10
97.02367954723051
 20
-125.8976181352569
 30
0.0
 10
96.63562399177185
 20
-125.8976181352569
 30
0.0
  0
ENDBLK
  5
185
330
182
100
AcDbEntity
  8
0
100
AcDbBlockEnd
  0
BLOCK
  5
188
330
186
100
AcDbEntity
  8
0
100
AcDbBlockBegin
  2
block 3
 70
     0
 10
0.0
 20
0.0
 30
0.0
  3
block 3
  1

  0
SPLINE
  5
18A
330
186
100
AcDbEntity
  8
Capa 1
 62
   250
370
     9
100
AcDbSpline
210
0.0
220
0.0
230
1.0
 70
    11
 71
     3
 72
    62
 73
    58
 74
     0
 42
0.0000000001
 43
0.0000000001
 12
1.0
 22
0.0
 32
0.0
 13
1.0
 23
0.0
 33
0.0
 40
0.0
 40
0.0
 40
0.0
 40
0.0
 40
1.0
 40
1.0
 40
1.0
 40
2.0
 40
2.0
 40
2.0
 40
3.0
 40
3.0
 40
3.0
 40
4.0
 40
4.0
 40
4.0
 40
5.0
 40
5.0
 40
5.0
 40
6.0
 40
6.0
 40
6.0
 40
7.0
 40
7.0
 40
7.0
 40
8.0
 40
8.0
 40
8.0
 40
9.0
 40
9.0
 40
9.0
 40
10.0
 40
10.0
 40
10.0
 40
11.0
 40
11.0
 40
11.0
 40
12.0
 40
12.0
 40
12.0
 40
13.0
 40
13.0
 40
13.0
 40
14.0
 40
14.0
 40
14.0
 40
15.0
 40
15.0
 40
15.0
 40
16.0
 40
16.0
 40
16.0
 40
17.0
 40
17.0
 40
17.0
 40
18.0
 40
18.0
 40
18.0
 40
19.0
 40
19.0
 40
19.0
 40
19.0
 10
98.16659635626048
 20
-128.5643868339662
 30
0.0
 10
98.16659635626048
 20
-128.5643868339662
 30
0.0
 10
101.9798905222568
 20
-128.5643868341372
 30
0.0
 10
101.9798905222568
 20
-128.5643868341372
 30
0.0
 10
103.1914538203388
 20
-128.5643868341917
 30
0.0
 10
103.1914538203927
 20
-127.3528235361103
 30
0.0
 10
103.1914538203927
 20
-127.3528235361103
 30
0.0
 10
103.1914538203927
 20
-127.3528235361103
 30
0.0
 10
103.1914538210793
 20
-112.0511182621045
 30
0.0
 10
103.1914538210793
 20
-112.0511182621045
 30
0.0
 10
103.1914538210793
 20
-112.0511182621045
 30
0.0
 10
102.0030469588417
 20
-112.0511182620509
 30
0.0
 10
102.0030469588417
 20
-112.0511182620509
 30
0.0
 10
102.0030469588417
 20
-112.0511182620509
 30
0.0
 10
102.0030469592864
 20
-102.1439623017441
 30
0.0
 10
102.0030469592864
 20
-102.1439623017441
 30
0.0
 10
102.0030469592864
 20
-102.1439623017441
 30
0.0
 10
103.191453821524
 20
-102.1439623017977
 30
0.0
 10
103.191453821524
 20
-102.1439623017977
 30
0.0
 10
103.191453821524
 20
-102.1439623017977
 30
0.0
 10
103.1914538218423
 20
-95.05973159498957
 30
0.0
 10
103.1914538218423
 20
-95.05973159498957
 30
0.0
 10
101.5827154460017
 20
-95.66001911035956
 30
0.0
 10
99.12225468562151
 20
-96.04385529997654
 30
0.0
 10
96.36472616765349
 20
-96.0438552998527
 30
0.0
 10
96.36472616765349
 20
-96.0438552998527
 30
0.0
 10
96.36493033588629
 20
-96.04385530000478
 30
0.0
 10
96.36493033588629
 20
-96.04385530000478
 30
0.0
 10
93.60740181791824
 20
-96.04385530000478
 30
0.0
 10
91.14694105755544
 20
-95.6600191102771
 30
0.0
 10
89.53820268174174
 20
-95.05973159483491
 30
0.0
 10
89.53820268174174
 20
-95.05973159483491
 30
0.0
 10
89.53820268174174
 20
-102.1439623016431
 30
0.0
 10
89.53820268174174
 20
-102.1439623016431
 30
0.0
 10
89.53820268174174
 20
-102.1439623016431
 30
0.0
 10
90.72660954397941
 20
-102.1439623016431
 30
0.0
 10
90.72660954397941
 20
-102.1439623016431
 30
0.0
 10
90.72660954397941
 20
-102.1439623016431
 30
0.0
 10
90.72660954397941
 20
-112.0511182619498
 30
0.0
 10
90.72660954397941
 20
-112.0511182619498
 30
0.0
 10
90.72660954397941
 20
-112.0511182619498
 30
0.0
 10
89.53820268174174
 20
-112.0511182619498
 30
0.0
 10
89.53820268174174
 20
-112.0511182619498
 30
0.0
 10
89.53820268174174
 20
-112.0511182619498
 30
0.0
 10
89.53820268174174
 20
-127.3528235359557
 30
0.0
 10
89.53820268174174
 20
-127.3528235359557
 30
0.0
 10
89.53820268174174
 20
-127.3528235359557
 30
0.0
 10
89.5382026817411
 20
-128.5643868340371
 30
0.0
 10
90.74976597982311
 20
-128.5643868340371
 30
0.0
 10
90.74976597982311
 20
-128.5643868340371
 30
0.0
 10
94.56306014581942
 20
-128.5643868340371
 30
0.0
 10
94.56306014581942
 20
-128.5643868340371
 30
0.0
 10
94.56306014581942
 20
-128.5643868340371
 30
0.0
 10
96.36482825179202
 20
-126.704893023127
 30
0.0
 10
96.36482825179202
 20
-126.704893023127
 30
0.0
 10
96.36482825179202
 20
-126.704893023127
 30
0.0
 10
98.16659635626048
 20
-128.5643868339662
 30
0.0
 10
98.16659635626048
 20
-128.5643868339662
 30
0.0
  0
SPLINE
  5
18B
330
186
100
AcDbEntity
  8
Capa 1
 62
   250
370
     9
100
AcDbSpline
210
0.0
220
0.0
230
1.0
 70
     8
 71
     3
 72
    26
 73
    22
 74
     0
 42
0.0000000001
 43
0.0000000001
 12
1.0
 22
0.0
 32
0.0
 13
1.0
 23
0.0
 33
0.0
 40
0.0
 40
0.0
 40
0.0
 40
0.0
 40
1.0
 40
1.0
 40
1.0
 40
2.0
 40
2.0
 40
2.0
 40
3.0
 40
3.0
 40
3.0
 40
4.0
 40
4.0
 40
4.0
 40
5.0
 40
5.0
 40
5.0
 40
6.0
 40
6.0
 40
6.0
 40
7.0
 40
7.0
 40
7.0
 40
7.0
 10
97.34117954715101
 20
-124.7363933737051
 30
0.0
 10
97.34117954715101
 20
-124.7363933737051
 30
0.0
 10
99.37192753320824
 20
-124.7363947671915
 30
0.0
 10
99.37192753320824
 20
-124.7363947671915
 30
0.0
 10
99.64678155739082
 20
-124.7363947671915
 30
0.0
 10
99.87168169703729
 20
-124.511494627545
 30
0.0
 10
99.87168169703729
 20
-124.2366298374391
 30
0.0
 10
99.87168169703729
 20
-124.2366298374391
 30
0.0
 10
99.87168169703729
 20
-101.2914218658808
 30
0.0
 10
99.87168169703729
 20
-101.2914218658808
 30
0.0
 10
99.87168169703729
 20
-101.0165463098511
 30
0.0
 10
99.64678155739082
 20
-100.7916461702046
 30
0.0
 10
99.37192753320824
 20
-100.7916461702046
 30
0.0
 10
99.09705197717886
 20
-100.7916461702046
 30
0.0
 10
98.8721518375324
 20
-101.0165463098511
 30
0.0
 10
98.8721518375324
 20
-101.2914218658808
 30
0.0
 10
98.8721518375324
 20
-101.2914218658808
 30
0.0
 10
98.8721518375324
 20
-123.722158656334
 30
0.0
 10
98.8721518375324
 20
-123.722158656334
 30
0.0
 10
98.8721518375324
 20
-123.722158656334
 30
0.0
 10
97.34117293573415
 20
-123.722158656334
 30
0.0
 10
97.34117293573415
 20
-123.722158656334
 30
0.0
  0
SPLINE
  5
18C
330
186
100
AcDbEntity
  8
Capa 1
 62
   250
370
     9
100
AcDbSpline
210
0.0
220
0.0
230
1.0
 70
     8
 71
     3
 72
    32
 73
    28
 74
     0
 42
0.0000000001
 43
0.0000000001
 12
1.0
 22
0.0
 32
0.0
 13
1.0
 23
0.0
 33
0.0
 40
0.0
 40
0.0
 40
0.0
 40
0.0
 40
1.0
 40
1.0
 40
1.0
 40
2.0
 40
2.0
 40
2.0
 40
3.0
 40
3.0
 40
3.0
 40
4.0
 40
4.0
 40
4.0
 40
5.0
 40
5.0
 40
5.0
 40
6.0
 40
6.0
 40
6.0
 40
7.0
 40
7.0
 40
7.0
 40
8.0
 40
8.0
 40
8.0
 40
9.0
 40
9.0
 40
9.0
 40
9.0
 10
95.44500281290858
 20
-123.7221595564359
 30
0.0
 10
95.44500281290858
 20
-123.7221595564359
 30
0.0
 10
93.85750601214693
 20
-123.7221595564359
 30
0.0
 10
93.85750601214693
 20
-123.7221595564359
 30
0.0
 10
93.85750601214693
 20
-123.7221595564359
 30
0.0
 10
93.85750601214693
 20
-101.2914172236884
 30
0.0
 10
93.85750601214693
 20
-101.2914172236884
 30
0.0
 10
93.85750601214693
 20
-101.0165453673174
 30
0.0
 10
93.63261085693433
 20
-100.7916502121051
 30
0.0
 10
93.35773900056365
 20
-100.7916502121051
 30
0.0
 10
93.35773900056365
 20
-100.7916502121051
 30
0.0
 10
93.35773800102885
 20
-100.7916502121051
 30
0.0
 10
93.35773800102885
 20
-100.7916502121051
 30
0.0
 10
93.08286614465818
 20
-100.7916502121051
 30
0.0
 10
92.85797098944558
 20
-101.0165453673174
 30
0.0
 10
92.85797098944558
 20
-101.2914172236884
 30
0.0
 10
92.85797098944558
 20
-101.2914172236884
 30
0.0
 10
92.85797098944558
 20
-124.2366263621219
 30
0.0
 10
92.85797098944558
 20
-124.2366263621219
 30
0.0
 10
92.85797098944558
 20
-124.5114982184929
 30
0.0
 10
93.08286614465818
 20
-124.7363933737051
 30
0.0
 10
93.35773800102885
 20
-124.7363933737051
 30
0.0
 10
93.35773800102885
 20
-124.7363933737051
 30
0.0
 10
93.35773900056365
 20
-124.7363933737051
 30
0.0
 10
93.35773900056365
 20
-124.7363933737051
 30
0.0
 10
93.35773900056365
 20
-124.7363933737051
 30
0.0
 10
95.44520698242927
 20
-124.7363933737051
 30
0.0
 10
95.44500281290858
 20
-124.7363933735531
 30
0.0
  0
ENDBLK
  5
189
330
186
100
AcDbEntity
  8
0
100
AcDbBlockEnd
  0
BLOCK
  5
1AD
330
1AB
100
AcDbEntity
  8
0
100
AcDbBlockBegin
  2
block 4
 70
     0
 10
0.0
 20
0.0
 30
0.0
  3
block 4
  1

  0
INSERT
  5
1B0
330
1AB
100
AcDbEntity
  8
Capa 1
100
AcDbBlockReference
  2
block 5
 10
0.0
 20
0.0
 30
0.0
  0
SPLINE
  5
1B6
330
1AB
100
AcDbEntity
  8
Capa 1
 62
   250
370
     9
100
AcDbSpline
210
0.0
220
0.0
230
1.0
 70
    11
 71
     3
 72
    29
 73
    25
 74
     0
 42
0.0000000001
 43
0.0000000001
 12
1.0
 22
0.0
 32
0.0
 13
1.0
 23
0.0
 33
0.0
 40
0.0
 40
0.0
 40
0.0
 40
0.0
 40
1.0
 40
1.0
 40
1.0
 40
2.0
 40
2.0
 40
2.0
 40
3.0
 40
3.0
 40
3.0
 40
4.0
 40
4.0
 40
4.0
 40
5.0
 40
5.0
 40
5.0
 40
6.0
 40
6.0
 40
6.0
 40
7.0
 40
7.0
 40
7.0
 40
8.0
 40
8.0
 40
8.0
 40
8.0
 10
83.82028177760338
 20
-136.539782322844
 30
0.0
 10
83.82028177760338
 20
-136.539782322844
 30
0.0
 10
83.82028177760338
 20
-137.0248479463278
 30
0.0
 10
83.82028177760338
 20
-137.0248479463278
 30
0.0
 10
83.82028177760338
 20
-137.4129035017867
 30
0.0
 10
83.5027817776829
 20
-137.7304035017069
 30
0.0
 10
83.11472622222422
 20
-137.7304035017069
 30
0.0
 10
83.11472622222422
 20
-137.7304035017069
 30
0.0
 10
81.15240663136437
 20
-137.7304035017069
 30
0.0
 10
81.15240663136437
 20
-137.7304035017069
 30
0.0
 10
80.76435107590635
 20
-137.7304035017069
 30
0.0
 10
80.44685107598521
 20
-137.4129035017867
 30
0.0
 10
80.44685107598521
 20
-137.0248479463278
 30
0.0
 10
80.44685107598521
 20
-137.0248479463278
 30
0.0
 10
80.44685107598521
 20
-136.539782322844
 30
0.0
 10
80.44685107598521
 20
-136.539782322844
 30
0.0
 10
80.44685107598521
 20
-136.1517267673853
 30
0.0
 10
80.76435107590635
 20
-135.8342267674648
 30
0.0
 10
81.15240663136437
 20
-135.8342267674648
 30
0.0
 10
81.15240663136437
 20
-135.8342267674648
 30
0.0
 10
83.11472622222422
 20
-135.8342267674648
 30
0.0
 10
83.11472622222422
 20
-135.8342267674648
 30
0.0
 10
83.5027817776829
 20
-135.8342267674648
 30
0.0
 10
83.82028177760338
 20
-136.1517267673853
 30
0.0
 10
83.82028177760338
 20
-136.539782322844
 30
0.0
  0
ENDBLK
  5
1AE
330
1AB
100
AcDbEntity
  8
0
100
AcDbBlockEnd
  0
BLOCK
  5
1B1
330
1AF
100
AcDbEntity
  8
0
100
AcDbBlockBegin
  2
block 5
 70
     0
 10
0.0
 20
0.0
 30
0.0
  3
block 5
  1

  0
SPLINE
  5
1B3
330
1AF
100
AcDbEntity
  8
Capa 1
 62
   250
370
     9
100
AcDbSpline
210
0.0
220
0.0
230
1.0
 70
    11
 71
     3
 72
    62
 73
    58
 74
     0
 42
0.0000000001
 43
0.0000000001
 12
1.0
 22
0.0
 32
0.0
 13
1.0
 23
0.0
 33
0.0
 40
0.0
 40
0.0
 40
0.0
 40
0.0
 40
1.0
 40
1.0
 40
1.0
 40
2.0
 40
2.0
 40
2.0
 40
3.0
 40
3.0
 40
3.0
 40
4.0
 40
4.0
 40
4.0
 40
5.0
 40
5.0
 40
5.0
 40
6.0
 40
6.0
 40
6.0
 40
7.0
 40
7.0
 40
7.0
 40
8.0
 40
8.0
 40
8.0
 40
9.0
 40
9.0
 40
9.0
 40
10.0
 40
10.0
 40
10.0
 40
11.0
 40
11.0
 40
11.0
 40
12.0
 40
12.0
 40
12.0
 40
13.0
 40
13.0
 40
13.0
 40
14.0
 40
14.0
 40
14.0
 40
15.0
 40
15.0
 40
15.0
 40
16.0
 40
16.0
 40
16.0
 40
17.0
 40
17.0
 40
17.0
 40
18.0
 40
18.0
 40
18.0
 40
19.0
 40
19.0
 40
19.0
 40
19.0
 10
86.487050476313
 20
-135.0088099583553
 30
0.0
 10
86.487050476313
 20
-135.0088099583553
 30
0.0
 10
86.48705047648369
 20
-131.195515792359
 30
0.0
 10
86.48705047648369
 20
-131.195515792359
 30
0.0
 10
86.48705047653823
 20
-129.983952494277
 30
0.0
 10
85.27548717845686
 20
-129.9839524942231
 30
0.0
 10
85.27548717845686
 20
-129.9839524942231
 30
0.0
 10
85.27548717845686
 20
-129.9839524942231
 30
0.0
 10
74.68830083701306
 20
-129.9839524935365
 30
0.0
 10
74.68830083701306
 20
-129.9839524935365
 30
0.0
 10
74.68830083701306
 20
-129.9839524935365
 30
0.0
 10
74.68830083695916
 20
-131.1723593557741
 30
0.0
 10
74.68830083695916
 20
-131.1723593557741
 30
0.0
 10
74.68830083695916
 20
-131.1723593557741
 30
0.0
 10
64.78114487665206
 20
-131.1723593553295
 30
0.0
 10
64.78114487665206
 20
-131.1723593553295
 30
0.0
 10
64.78114487665206
 20
-131.1723593553295
 30
0.0
 10
64.78114487670597
 20
-129.9839524930921
 30
0.0
 10
64.78114487670597
 20
-129.9839524930921
 30
0.0
 10
64.78114487670597
 20
-129.9839524930921
 30
0.0
 10
52.98239523733608
 20
-129.9839524927735
 30
0.0
 10
52.98239523733608
 20
-129.9839524927735
 30
0.0
 10
53.58268275270576
 20
-131.5926908686141
 30
0.0
 10
53.96651894232274
 20
-134.0531516289943
 30
0.0
 10
53.96651894219953
 20
-136.8106801469623
 30
0.0
 10
53.96651894219953
 20
-136.8106801469623
 30
0.0
 10
53.96651894235097
 20
-136.8104759787295
 30
0.0
 10
53.96651894235097
 20
-136.8104759787295
 30
0.0
 10
53.96651894235097
 20
-139.5680044966972
 30
0.0
 10
53.58268275262362
 20
-142.0284652570604
 30
0.0
 10
52.98239523718143
 20
-143.6372036328741
 30
0.0
 10
52.98239523718143
 20
-143.6372036328741
 30
0.0
 10
64.78114487667901
 20
-143.6372036328741
 30
0.0
 10
64.78114487667901
 20
-143.6372036328741
 30
0.0
 10
64.78114487667901
 20
-143.6372036328741
 30
0.0
 10
64.78114487667901
 20
-142.4487967706364
 30
0.0
 10
64.78114487667901
 20
-142.4487967706364
 30
0.0
 10
64.78114487667901
 20
-142.4487967706364
 30
0.0
 10
74.68830083698546
 20
-142.4487967706364
 30
0.0
 10
74.68830083698546
 20
-142.4487967706364
 30
0.0
 10
74.68830083698546
 20
-142.4487967706364
 30
0.0
 10
74.68830083698546
 20
-143.6372036328741
 30
0.0
 10
74.68830083698546
 20
-143.6372036328741
 30
0.0
 10
74.68830083698546
 20
-143.6372036328741
 30
0.0
 10
85.27548717830221
 20
-143.6372036328741
 30
0.0
 10
85.27548717830221
 20
-143.6372036328741
 30
0.0
 10
85.27548717830221
 20
-143.6372036328741
 30
0.0
 10
86.48705047638359
 20
-143.6372036328747
 30
0.0
 10
86.48705047638359
 20
-142.4256403347927
 30
0.0
 10
86.48705047638359
 20
-142.4256403347927
 30
0.0
 10
86.48705047638359
 20
-138.6123461687964
 30
0.0
 10
86.48705047638359
 20
-138.6123461687964
 30
0.0
 10
86.48705047638359
 20
-138.6123461687964
 30
0.0
 10
84.62755666547322
 20
-136.8105780628238
 30
0.0
 10
84.62755666547322
 20
-136.8105780628238
 30
0.0
 10
84.62755666547322
 20
-136.8105780628238
 30
0.0
 10
86.487050476313
 20
-135.0088099583553
 30
0.0
 10
86.487050476313
 20
-135.0088099583553
 30
0.0
  0
SPLINE
  5
1B4
330
1AF
100
AcDbEntity
  8
Capa 1
 62
   250
370
     9
100
AcDbSpline
210
0.0
220
0.0
230
1.0
 70
     8
 71
     3
 72
    26
 73
    22
 74
     0
 42
0.0000000001
 43
0.0000000001
 12
1.0
 22
0.0
 32
0.0
 13
1.0
 23
0.0
 33
0.0
 40
0.0
 40
0.0
 40
0.0
 40
0.0
 40
1.0
 40
1.0
 40
1.0
 40
2.0
 40
2.0
 40
2.0
 40
3.0
 40
3.0
 40
3.0
 40
4.0
 40
4.0
 40
4.0
 40
5.0
 40
5.0
 40
5.0
 40
6.0
 40
6.0
 40
6.0
 40
7.0
 40
7.0
 40
7.0
 40
7.0
 10
82.65905701605134
 20
-135.8342267674648
 30
0.0
 10
82.65905701605134
 20
-135.8342267674648
 30
0.0
 10
82.65905840953802
 20
-133.8034787814076
 30
0.0
 10
82.65905840953802
 20
-133.8034787814076
 30
0.0
 10
82.65905840953802
 20
-133.528624757225
 30
0.0
 10
82.43415826989155
 20
-133.3037246175788
 30
0.0
 10
82.15929347978557
 20
-133.3037246175788
 30
0.0
 10
82.15929347978557
 20
-133.3037246175788
 30
0.0
 10
59.21408550822695
 20
-133.3037246175788
 30
0.0
 10
59.21408550822695
 20
-133.3037246175788
 30
0.0
 10
58.93920995219758
 20
-133.3037246175788
 30
0.0
 10
58.71430981255111
 20
-133.528624757225
 30
0.0
 10
58.71430981255111
 20
-133.8034787814076
 30
0.0
 10
58.71430981255111
 20
-134.0783543374373
 30
0.0
 10
58.93920995219758
 20
-134.3032544770834
 30
0.0
 10
59.21408550822695
 20
-134.3032544770834
 30
0.0
 10
59.21408550822695
 20
-134.3032544770834
 30
0.0
 10
81.64482229868047
 20
-134.3032544770834
 30
0.0
 10
81.64482229868047
 20
-134.3032544770834
 30
0.0
 10
81.64482229868047
 20
-134.3032544770834
 30
0.0
 10
81.64482229868047
 20
-135.834233378882
 30
0.0
 10
81.64482229868047
 20
-135.834233378882
 30
0.0
  0
SPLINE
  5
1B5
330
1AF
100
AcDbEntity
  8
Capa 1
 62
   250
370
     9
100
AcDbSpline
210
0.0
220
0.0
230
1.0
 70
     8
 71
     3
 72
    32
 73
    28
 74
     0
 42
0.0000000001
 43
0.0000000001
 12
1.0
 22
0.0
 32
0.0
 13
1.0
 23
0.0
 33
0.0
 40
0.0
 40
0.0
 40
0.0
 40
0.0
 40
1.0
 40
1.0
 40
1.0
 40
2.0
 40
2.0
 40
2.0
 40
3.0
 40
3.0
 40
3.0
 40
4.0
 40
4.0
 40
4.0
 40
5.0
 40
5.0
 40
5.0
 40
6.0
 40
6.0
 40
6.0
 40
7.0
 40
7.0
 40
7.0
 40
8.0
 40
8.0
 40
8.0
 40
9.0
 40
9.0
 40
9.0
 40
9.0
 10
81.64482319878273
 20
-137.7304035017069
 30
0.0
 10
81.64482319878273
 20
-137.7304035017069
 30
0.0
 10
81.64482319878273
 20
-139.3179003024689
 30
0.0
 10
81.64482319878273
 20
-139.3179003024689
 30
0.0
 10
81.64482319878273
 20
-139.3179003024689
 30
0.0
 10
59.21408086603493
 20
-139.3179003024689
 30
0.0
 10
59.21408086603493
 20
-139.3179003024689
 30
0.0
 10
58.93920900966361
 20
-139.3179003024689
 30
0.0
 10
58.71431385445166
 20
-139.5427954576815
 30
0.0
 10
58.71431385445166
 20
-139.8176673140522
 30
0.0
 10
58.71431385445166
 20
-139.8176673140522
 30
0.0
 10
58.71431385445166
 20
-139.8176683135869
 30
0.0
 10
58.71431385445166
 20
-139.8176683135869
 30
0.0
 10
58.71431385445166
 20
-140.0925401699576
 30
0.0
 10
58.93920900966361
 20
-140.3174353251702
 30
0.0
 10
59.21408086603493
 20
-140.3174353251702
 30
0.0
 10
59.21408086603493
 20
-140.3174353251702
 30
0.0
 10
82.15929000446806
 20
-140.3174353251702
 30
0.0
 10
82.15929000446806
 20
-140.3174353251702
 30
0.0
 10
82.43416186083938
 20
-140.3174353251702
 30
0.0
 10
82.65905701605134
 20
-140.0925401699576
 30
0.0
 10
82.65905701605134
 20
-139.8176683135869
 30
0.0
 10
82.65905701605134
 20
-139.8176683135869
 30
0.0
 10
82.65905701605134
 20
-139.8176673140522
 30
0.0
 10
82.65905701605134
 20
-139.8176673140522
 30
0.0
 10
82.65905701605134
 20
-139.8176673140522
 30
0.0
 10
82.65905701605134
 20
-137.7301993321865
 30
0.0
 10
82.65905701589989
 20
-137.7304035017069
 30
0.0
  0
ENDBLK
  5
1B2
330
1AF
100
AcDbEntity
  8
0
100
AcDbBlockEnd
  0
BLOCK
  5
1D8
330
1D6
100
AcDbEntity
  8
0
100
AcDbBlockBegin
  2
block 6
 70
     0
 10
0.0
 20
0.0
 30
0.0
  3
block 6
  1

  0
INSERT
  5
1DB
330
1D6
100
AcDbEntity
  8
Capa 1
100
AcDbBlockReference
  2
block 7
 10
0.0
 20
0.0
 30
0.0
  0
SPLINE
  5
1E1
330
1D6
100
AcDbEntity
  8
Capa 1
 62
   250
370
     9
100
AcDbSpline
210
0.0
220
0.0
230
1.0
 70
    11
 71
     3
 72
    29
 73
    25
 74
     0
 42
0.0000000001
 43
0.0000000001
 12
1.0
 22
0.0
 32
0.0
 13
1.0
 23
0.0
 33
0.0
 40
0.0
 40
0.0
 40
0.0
 40
0.0
 40
1.0
 40
1.0
 40
1.0
 40
2.0
 40
2.0
 40
2.0
 40
3.0
 40
3.0
 40
3.0
 40
4.0
 40
4.0
 40
4.0
 40
5.0
 40
5.0
 40
5.0
 40
6.0
 40
6.0
 40
6.0
 40
7.0
 40
7.0
 40
7.0
 40
8.0
 40
8.0
 40
8.0
 40
8.0
 10
108.9008900422079
 20
-136.5397823222802
 30
0.0
 10
108.9008900422079
 20
-136.5397823222802
 30
0.0
 10
108.9008900421861
 20
-137.0248479457643
 30
0.0
 10
108.9008900421861
 20
-137.0248479457643
 30
0.0
 10
108.9008900421687
 20
-137.412903501223
 30
0.0
 10
109.2183900420751
 20
-137.7304035011576
 30
0.0
 10
109.6064455975338
 20
-137.7304035011756
 30
0.0
 10
109.6064455975338
 20
-137.7304035011756
 30
0.0
 10
111.5687651883936
 20
-137.7304035012632
 30
0.0
 10
111.5687651883936
 20
-137.7304035012632
 30
0.0
 10
111.9568207438523
 20
-137.7304035012808
 30
0.0
 10
112.2743207437869
 20
-137.4129035013741
 30
0.0
 10
112.2743207438043
 20
-137.0248479459158
 30
0.0
 10
112.2743207438043
 20
-137.0248479459158
 30
0.0
 10
112.2743207438261
 20
-136.5397823224317
 30
0.0
 10
112.2743207438261
 20
-136.5397823224317
 30
0.0
 10
112.2743207438434
 20
-136.151726766973
 30
0.0
 10
111.956820743937
 20
-135.8342267670384
 30
0.0
 10
111.5687651884784
 20
-135.8342267670207
 30
0.0
 10
111.5687651884784
 20
-135.8342267670207
 30
0.0
 10
109.6064455976185
 20
-135.8342267669328
 30
0.0
 10
109.6064455976185
 20
-135.8342267669328
 30
0.0
 10
109.2183900421598
 20
-135.8342267669152
 30
0.0
 10
108.9008900422252
 20
-136.1517267668219
 30
0.0
 10
108.9008900422079
 20
-136.5397823222802
 30
0.0
  0
ENDBLK
  5
1D9
330
1D6
100
AcDbEntity
  8
0
100
AcDbBlockEnd
  0
BLOCK
  5
1DC
330
1DA
100
AcDbEntity
  8
0
100
AcDbBlockBegin
  2
block 7
 70
     0
 10
0.0
 20
0.0
 30
0.0
  3
block 7
  1

  0
SPLINE
  5
1DE
330
1DA
100
AcDbEntity
  8
Capa 1
 62
   250
370
     9
100
AcDbSpline
210
0.0
220
0.0
230
1.0
 70
    11
 71
     3
 72
    62
 73
    58
 74
     0
 42
0.0000000001
 43
0.0000000001
 12
1.0
 22
0.0
 32
0.0
 13
1.0
 23
0.0
 33
0.0
 40
0.0
 40
0.0
 40
0.0
 40
0.0
 40
1.0
 40
1.0
 40
1.0
 40
2.0
 40
2.0
 40
2.0
 40
3.0
 40
3.0
 40
3.0
 40
4.0
 40
4.0
 40
4.0
 40
5.0
 40
5.0
 40
5.0
 40
6.0
 40
6.0
 40
6.0
 40
7.0
 40
7.0
 40
7.0
 40
8.0
 40
8.0
 40
8.0
 40
9.0
 40
9.0
 40
9.0
 40
10.0
 40
10.0
 40
10.0
 40
11.0
 40
11.0
 40
11.0
 40
12.0
 40
12.0
 40
12.0
 40
13.0
 40
13.0
 40
13.0
 40
14.0
 40
14.0
 40
14.0
 40
15.0
 40
15.0
 40
15.0
 40
16.0
 40
16.0
 40
16.0
 40
17.0
 40
17.0
 40
17.0
 40
18.0
 40
18.0
 40
18.0
 40
19.0
 40
19.0
 40
19.0
 40
19.0
 10
106.2341213435669
 20
-135.0088099576719
 30
0.0
 10
106.2341213435669
 20
-135.0088099576719
 30
0.0
 10
106.2341213435676
 20
-131.1955157916756
 30
0.0
 10
106.2341213435676
 20
-131.1955157916756
 30
0.0
 10
106.2341213435676
 20
-129.9839524935936
 30
0.0
 10
107.445684641649
 20
-129.9839524935939
 30
0.0
 10
107.445684641649
 20
-129.9839524935939
 30
0.0
 10
107.445684641649
 20
-129.9839524935939
 30
0.0
 10
118.0328709830928
 20
-129.9839524933828
 30
0.0
 10
118.0328709830928
 20
-129.9839524933828
 30
0.0
 10
118.0328709830928
 20
-129.9839524933828
 30
0.0
 10
118.0328709830928
 20
-131.1723593556205
 30
0.0
 10
118.0328709830928
 20
-131.1723593556205
 30
0.0
 10
118.0328709830928
 20
-131.1723593556205
 30
0.0
 10
127.9400269433999
 20
-131.1723593556205
 30
0.0
 10
127.9400269433999
 20
-131.1723593556205
 30
0.0
 10
127.9400269433999
 20
-131.1723593556205
 30
0.0
 10
127.9400269433999
 20
-129.9839524933828
 30
0.0
 10
127.9400269433999
 20
-129.9839524933828
 30
0.0
 10
127.9400269433999
 20
-129.9839524933828
 30
0.0
 10
139.738776582771
 20
-129.9839524935942
 30
0.0
 10
139.738776582771
 20
-129.9839524935942
 30
0.0
 10
139.1384890673263
 20
-131.5926908694079
 30
0.0
 10
138.7546528775989
 20
-134.0531516297708
 30
0.0
 10
138.7546528775989
 20
-136.8106801477388
 30
0.0
 10
138.7546528775989
 20
-136.8106801477388
 30
0.0
 10
138.7546528774475
 20
-136.810475979506
 30
0.0
 10
138.7546528774475
 20
-136.810475979506
 30
0.0
 10
138.7546528773236
 20
-139.5680044974737
 30
0.0
 10
139.1384890669419
 20
-142.0284652578542
 30
0.0
 10
139.7387765823122
 20
-143.6372036336945
 30
0.0
 10
139.7387765823122
 20
-143.6372036336945
 30
0.0
 10
127.9400269428133
 20
-143.6372036331651
 30
0.0
 10
127.9400269428133
 20
-143.6372036331651
 30
0.0
 10
127.9400269428133
 20
-143.6372036331651
 30
0.0
 10
127.9400269428672
 20
-142.4487967709274
 30
0.0
 10
127.9400269428672
 20
-142.4487967709274
 30
0.0
 10
127.9400269428672
 20
-142.4487967709274
 30
0.0
 10
118.0328709825608
 20
-142.4487967704827
 30
0.0
 10
118.0328709825608
 20
-142.4487967704827
 30
0.0
 10
118.0328709825608
 20
-142.4487967704827
 30
0.0
 10
118.0328709825069
 20
-143.6372036327204
 30
0.0
 10
118.0328709825069
 20
-143.6372036327204
 30
0.0
 10
118.0328709825069
 20
-143.6372036327204
 30
0.0
 10
107.4456846411901
 20
-143.6372036322449
 30
0.0
 10
107.4456846411901
 20
-143.6372036322449
 30
0.0
 10
107.4456846411901
 20
-143.6372036322449
 30
0.0
 10
106.2341213431088
 20
-143.6372036321916
 30
0.0
 10
106.2341213431633
 20
-142.425640334109
 30
0.0
 10
106.2341213431633
 20
-142.425640334109
 30
0.0
 10
106.2341213433346
 20
-138.612346168113
 30
0.0
 10
106.2341213433346
 20
-138.612346168113
 30
0.0
 10
106.2341213433346
 20
-138.612346168113
 30
0.0
 10
108.0936151543259
 20
-136.8105780622238
 30
0.0
 10
108.0936151543259
 20
-136.8105780622238
 30
0.0
 10
108.0936151543259
 20
-136.8105780622238
 30
0.0
 10
106.2341213435669
 20
-135.0088099576719
 30
0.0
 10
106.2341213435669
 20
-135.0088099576719
 30
0.0
  0
SPLINE
  5
1DF
330
1DA
100
AcDbEntity
  8
Capa 1
 62
   250
370
     9
100
AcDbSpline
210
0.0
220
0.0
230
1.0
 70
     8
 71
     3
 72
    26
 73
    22
 74
     0
 42
0.0000000001
 43
0.0000000001
 12
1.0
 22
0.0
 32
0.0
 13
1.0
 23
0.0
 33
0.0
 40
0.0
 40
0.0
 40
0.0
 40
0.0
 40
1.0
 40
1.0
 40
1.0
 40
2.0
 40
2.0
 40
2.0
 40
3.0
 40
3.0
 40
3.0
 40
4.0
 40
4.0
 40
4.0
 40
5.0
 40
5.0
 40
5.0
 40
6.0
 40
6.0
 40
6.0
 40
7.0
 40
7.0
 40
7.0
 40
7.0
 10
110.0621148037914
 20
-135.834226766953
 30
0.0
 10
110.0621148037914
 20
-135.834226766953
 30
0.0
 10
110.0621134103958
 20
-133.8034787808958
 30
0.0
 10
110.0621134103958
 20
-133.8034787808958
 30
0.0
 10
110.0621134104087
 20
-133.5286247567132
 30
0.0
 10
110.2870135500647
 20
-133.303724617077
 30
0.0
 10
110.5618783401707
 20
-133.3037246170892
 30
0.0
 10
110.5618783401707
 20
-133.3037246170892
 30
0.0
 10
133.5070863117287
 20
-133.3037246181195
 30
0.0
 10
133.5070863117287
 20
-133.3037246181195
 30
0.0
 10
133.7819618677593
 20
-133.303724618132
 30
0.0
 10
134.0068620073949
 20
-133.5286247577884
 30
0.0
 10
134.006862007384
 20
-133.803478781971
 30
0.0
 10
134.0068620073699
 20
-134.0783543380004
 30
0.0
 10
133.7819618677132
 20
-134.3032544776366
 30
0.0
 10
133.5070863116831
 20
-134.3032544776244
 30
0.0
 10
133.5070863116831
 20
-134.3032544776244
 30
0.0
 10
111.0763495212309
 20
-134.3032544766172
 30
0.0
 10
111.0763495212309
 20
-134.3032544766172
 30
0.0
 10
111.0763495212309
 20
-134.3032544766172
 30
0.0
 10
111.0763495211623
 20
-135.8342333784155
 30
0.0
 10
111.0763495211623
 20
-135.8342333784155
 30
0.0
  0
SPLINE
  5
1E0
330
1DA
100
AcDbEntity
  8
Capa 1
 62
   250
370
     9
100
AcDbSpline
210
0.0
220
0.0
230
1.0
 70
     8
 71
     3
 72
    32
 73
    28
 74
     0
 42
0.0000000001
 43
0.0000000001
 12
1.0
 22
0.0
 32
0.0
 13
1.0
 23
0.0
 33
0.0
 40
0.0
 40
0.0
 40
0.0
 40
0.0
 40
1.0
 40
1.0
 40
1.0
 40
2.0
 40
2.0
 40
2.0
 40
3.0
 40
3.0
 40
3.0
 40
4.0
 40
4.0
 40
4.0
 40
5.0
 40
5.0
 40
5.0
 40
6.0
 40
6.0
 40
6.0
 40
7.0
 40
7.0
 40
7.0
 40
8.0
 40
8.0
 40
8.0
 40
9.0
 40
9.0
 40
9.0
 40
9.0
 10
111.0763486209753
 20
-137.730403501241
 30
0.0
 10
111.0763486209753
 20
-137.730403501241
 30
0.0
 10
111.0763486209041
 20
-139.3179003020027
 30
0.0
 10
111.0763486209041
 20
-139.3179003020027
 30
0.0
 10
111.0763486209041
 20
-139.3179003020027
 30
0.0
 10
133.5070909536531
 20
-139.3179003030098
 30
0.0
 10
133.5070909536531
 20
-139.3179003030098
 30
0.0
 10
133.7819628100219
 20
-139.317900303022
 30
0.0
 10
134.0068579652242
 20
-139.5427954582449
 30
0.0
 10
134.006857965214
 20
-139.8176673146156
 30
0.0
 10
134.006857965214
 20
-139.8176673146156
 30
0.0
 10
134.006857965214
 20
-139.8176683141504
 30
0.0
 10
134.006857965214
 20
-139.8176683141504
 30
0.0
 10
134.0068579651998
 20
-140.092540170521
 30
0.0
 10
133.7819628099795
 20
-140.3174353257234
 30
0.0
 10
133.5070909536069
 20
-140.3174353257109
 30
0.0
 10
133.5070909536069
 20
-140.3174353257109
 30
0.0
 10
110.5618818151738
 20
-140.3174353246809
 30
0.0
 10
110.5618818151738
 20
-140.3174353246809
 30
0.0
 10
110.2870099588025
 20
-140.3174353246691
 30
0.0
 10
110.0621148036002
 20
-140.0925401694459
 30
0.0
 10
110.062114803613
 20
-139.8176683130752
 30
0.0
 10
110.062114803613
 20
-139.8176683130752
 30
0.0
 10
110.062114803613
 20
-139.8176673135404
 30
0.0
 10
110.062114803613
 20
-139.8176673135404
 30
0.0
 10
110.062114803613
 20
-139.8176673135404
 30
0.0
 10
110.0621148037067
 20
-137.7301993316748
 30
0.0
 10
110.0621148038581
 20
-137.7304035011955
 30
0.0
  0
ENDBLK
  5
1DD
330
1DA
100
AcDbEntity
  8
0
100
AcDbBlockEnd
  0
BLOCK
  5
1F6
330
1F4
100
AcDbEntity
  8
0
100
AcDbBlockBegin
  2
block 8
 70
     0
 10
0.0
 20
0.0
 30
0.0
  3
block 8
  1

  0
INSERT
  5
1F9
330
1F4
100
AcDbEntity
  8
Capa 1
100
AcDbBlockReference
  2
block 9
 10
0.0
 20
0.0
 30
0.0
  0
SPLINE
  5
1FF
330
1F4
100
AcDbEntity
  8
Capa 1
 62
   250
370
     9
100
AcDbSpline
210
0.0
220
0.0
230
1.0
 70
    11
 71
     3
 72
    29
 73
    25
 74
     0
 42
0.0000000001
 43
0.0000000001
 12
1.0
 22
0.0
 32
0.0
 13
1.0
 23
0.0
 33
0.0
 40
0.0
 40
0.0
 40
0.0
 40
0.0
 40
1.0
 40
1.0
 40
1.0
 40
2.0
 40
2.0
 40
2.0
 40
3.0
 40
3.0
 40
3.0
 40
4.0
 40
4.0
 40
4.0
 40
5.0
 40
5.0
 40
5.0
 40
6.0
 40
6.0
 40
6.0
 40
7.0
 40
7.0
 40
7.0
 40
8.0
 40
8.0
 40
8.0
 40
8.0
 10
96.08554782892112
 20
-152.4838561097756
 30
0.0
 10
96.08554782892112
 20
-152.4838561097756
 30
0.0
 10
96.57061345240523
 20
-152.4838561097756
 30
0.0
 10
96.57061345240523
 20
-152.4838561097756
 30
0.0
 10
96.95866900786325
 20
-152.4838561097756
 30
0.0
 10
97.27616900778439
 20
-152.8013561096961
 30
0.0
 10
97.27616900778439
 20
-153.1894116651548
 30
0.0
 10
97.27616900778439
 20
-153.1894116651548
 30
0.0
 10
97.27616900778439
 20
-155.1517312560146
 30
0.0
 10
97.27616900778439
 20
-155.1517312560146
 30
0.0
 10
97.27616900778439
 20
-155.5397868114726
 30
0.0
 10
96.95866900786325
 20
-155.8572868113937
 30
0.0
 10
96.57061345240523
 20
-155.8572868113937
 30
0.0
 10
96.57061345240523
 20
-155.8572868113937
 30
0.0
 10
96.08554782892112
 20
-155.8572868113937
 30
0.0
 10
96.08554782892112
 20
-155.8572868113937
 30
0.0
 10
95.6974922734618
 20
-155.8572868113937
 30
0.0
 10
95.37999227354196
 20
-155.5397868114726
 30
0.0
 10
95.37999227354196
 20
-155.1517312560146
 30
0.0
 10
95.37999227354196
 20
-155.1517312560146
 30
0.0
 10
95.37999227354196
 20
-153.1894116651548
 30
0.0
 10
95.37999227354196
 20
-153.1894116651548
 30
0.0
 10
95.37999227354196
 20
-152.8013561096961
 30
0.0
 10
95.6974922734618
 20
-152.4838561097756
 30
0.0
 10
96.08554782892112
 20
-152.4838561097756
 30
0.0
  0
ENDBLK
  5
1F7
330
1F4
100
AcDbEntity
  8
0
100
AcDbBlockEnd
  0
BLOCK
  5
1FA
330
1F8
100
AcDbEntity
  8
0
100
AcDbBlockBegin
  2
block 9
 70
     0
 10
0.0
 20
0.0
 30
0.0
  3
block 9
  1

  0
SPLINE
  5
1FC
330
1F8
100
AcDbEntity
  8
Capa 1
 62
   250
370
     9
100
AcDbSpline
210
0.0
220
0.0
230
1.0
 70
    11
 71
     3
 72
    62
 73
    58
 74
     0
 42
0.0000000001
 43
0.0000000001
 12
1.0
 22
0.0
 32
0.0
 13
1.0
 23
0.0
 33
0.0
 40
0.0
 40
0.0
 40
0.0
 40
0.0
 40
1.0
 40
1.0
 40
1.0
 40
2.0
 40
2.0
 40
2.0
 40
3.0
 40
3.0
 40
3.0
 40
4.0
 40
4.0
 40
4.0
 40
5.0
 40
5.0
 40
5.0
 40
6.0
 40
6.0
 40
6.0
 40
7.0
 40
7.0
 40
7.0
 40
8.0
 40
8.0
 40
8.0
 40
9.0
 40
9.0
 40
9.0
 40
10.0
 40
10.0
 40
10.0
 40
11.0
 40
11.0
 40
11.0
 40
12.0
 40
12.0
 40
12.0
 40
13.0
 40
13.0
 40
13.0
 40
14.0
 40
14.0
 40
14.0
 40
15.0
 40
15.0
 40
15.0
 40
16.0
 40
16.0
 40
16.0
 40
17.0
 40
17.0
 40
17.0
 40
18.0
 40
18.0
 40
18.0
 40
19.0
 40
19.0
 40
19.0
 40
19.0
 10
94.55457546443184
 20
-149.817087411066
 30
0.0
 10
94.55457546443184
 20
-149.817087411066
 30
0.0
 10
90.74128129843618
 20
-149.8170874108953
 30
0.0
 10
90.74128129843618
 20
-149.8170874108953
 30
0.0
 10
89.52971800035353
 20
-149.8170874108407
 30
0.0
 10
89.52971800029962
 20
-151.0286507089221
 30
0.0
 10
89.52971800029962
 20
-151.0286507089221
 30
0.0
 10
89.52971800029962
 20
-151.0286507089221
 30
0.0
 10
89.529717999613
 20
-161.6158370503659
 30
0.0
 10
89.529717999613
 20
-161.6158370503659
 30
0.0
 10
89.529717999613
 20
-161.6158370503659
 30
0.0
 10
90.71812486185131
 20
-161.6158370504198
 30
0.0
 10
90.71812486185131
 20
-161.6158370504198
 30
0.0
 10
90.71812486185131
 20
-161.6158370504198
 30
0.0
 10
90.71812486140597
 20
-171.5229930107269
 30
0.0
 10
90.71812486140597
 20
-171.5229930107269
 30
0.0
 10
90.71812486140597
 20
-171.5229930107269
 30
0.0
 10
89.52971799916895
 20
-171.522993010673
 30
0.0
 10
89.52971799916895
 20
-171.522993010673
 30
0.0
 10
89.52971799916895
 20
-171.522993010673
 30
0.0
 10
89.52971799885067
 20
-183.3217426500429
 30
0.0
 10
89.52971799885067
 20
-183.3217426500429
 30
0.0
 10
91.13845637469066
 20
-182.7214551346732
 30
0.0
 10
93.59891713507146
 20
-182.3376189450562
 30
0.0
 10
96.35644565303885
 20
-182.3376189451794
 30
0.0
 10
96.35644565303885
 20
-182.3376189451794
 30
0.0
 10
96.35624148480669
 20
-182.337618945028
 30
0.0
 10
96.35624148480669
 20
-182.337618945028
 30
0.0
 10
99.11377000277407
 20
-182.337618945028
 30
0.0
 10
101.5742307631369
 20
-182.7214551347554
 30
0.0
 10
103.1829691389512
 20
-183.3217426501975
 30
0.0
 10
103.1829691389512
 20
-183.3217426501975
 30
0.0
 10
103.1829691389512
 20
-171.5229930107
 30
0.0
 10
103.1829691389512
 20
-171.5229930107
 30
0.0
 10
103.1829691389512
 20
-171.5229930107
 30
0.0
 10
101.9945622767129
 20
-171.5229930107
 30
0.0
 10
101.9945622767129
 20
-171.5229930107
 30
0.0
 10
101.9945622767129
 20
-171.5229930107
 30
0.0
 10
101.9945622767129
 20
-161.6158370503935
 30
0.0
 10
101.9945622767129
 20
-161.6158370503935
 30
0.0
 10
101.9945622767129
 20
-161.6158370503935
 30
0.0
 10
103.1829691389512
 20
-161.6158370503935
 30
0.0
 10
103.1829691389512
 20
-161.6158370503935
 30
0.0
 10
103.1829691389512
 20
-161.6158370503935
 30
0.0
 10
103.1829691389512
 20
-151.0286507090768
 30
0.0
 10
103.1829691389512
 20
-151.0286507090768
 30
0.0
 10
103.1829691389512
 20
-151.0286507090768
 30
0.0
 10
103.1829691389512
 20
-149.8170874109954
 30
0.0
 10
101.9714058408698
 20
-149.8170874109954
 30
0.0
 10
101.9714058408698
 20
-149.8170874109954
 30
0.0
 10
98.15811167487291
 20
-149.8170874109954
 30
0.0
 10
98.15811167487291
 20
-149.8170874109954
 30
0.0
 10
98.15811167487291
 20
-149.8170874109954
 30
0.0
 10
96.3563435689003
 20
-151.6765812219058
 30
0.0
 10
96.3563435689003
 20
-151.6765812219058
 30
0.0
 10
96.3563435689003
 20
-151.6765812219058
 30
0.0
 10
94.55457546443184
 20
-149.817087411066
 30
0.0
 10
94.55457546443184
 20
-149.817087411066
 30
0.0
  0
SPLINE
  5
1FD
330
1F8
100
AcDbEntity
  8
Capa 1
 62
   250
370
     9
100
AcDbSpline
210
0.0
220
0.0
230
1.0
 70
     8
 71
     3
 72
    26
 73
    22
 74
     0
 42
0.0000000001
 43
0.0000000001
 12
1.0
 22
0.0
 32
0.0
 13
1.0
 23
0.0
 33
0.0
 40
0.0
 40
0.0
 40
0.0
 40
0.0
 40
1.0
 40
1.0
 40
1.0
 40
2.0
 40
2.0
 40
2.0
 40
3.0
 40
3.0
 40
3.0
 40
4.0
 40
4.0
 40
4.0
 40
5.0
 40
5.0
 40
5.0
 40
6.0
 40
6.0
 40
6.0
 40
7.0
 40
7.0
 40
7.0
 40
7.0
 10
95.37999227354196
 20
-153.6450808713276
 30
0.0
 10
95.37999227354196
 20
-153.6450808713276
 30
0.0
 10
93.3492442874841
 20
-153.6450794778409
 30
0.0
 10
93.3492442874841
 20
-153.6450794778409
 30
0.0
 10
93.07439026330151
 20
-153.6450794778409
 30
0.0
 10
92.84949012365504
 20
-153.8699796174874
 30
0.0
 10
92.84949012365504
 20
-154.1448444075934
 30
0.0
 10
92.84949012365504
 20
-154.1448444075934
 30
0.0
 10
92.84949012365504
 20
-177.090052379152
 30
0.0
 10
92.84949012365504
 20
-177.090052379152
 30
0.0
 10
92.84949012365504
 20
-177.3649279351814
 30
0.0
 10
93.07439026330151
 20
-177.5898280748279
 30
0.0
 10
93.3492442874841
 20
-177.5898280748279
 30
0.0
 10
93.62411984351347
 20
-177.5898280748279
 30
0.0
 10
93.84901998315993
 20
-177.3649279351814
 30
0.0
 10
93.84901998315993
 20
-177.090052379152
 30
0.0
 10
93.84901998315993
 20
-177.090052379152
 30
0.0
 10
93.84901998315993
 20
-154.6593155886985
 30
0.0
 10
93.84901998315993
 20
-154.6593155886985
 30
0.0
 10
93.84901998315993
 20
-154.6593155886985
 30
0.0
 10
95.37999888495817
 20
-154.6593155886985
 30
0.0
 10
95.37999888495817
 20
-154.6593155886985
 30
0.0
  0
SPLINE
  5
1FE
330
1F8
100
AcDbEntity
  8
Capa 1
 62
   250
370
     9
100
AcDbSpline
210
0.0
220
0.0
230
1.0
 70
     8
 71
     3
 72
    32
 73
    28
 74
     0
 42
0.0000000001
 43
0.0000000001
 12
1.0
 22
0.0
 32
0.0
 13
1.0
 23
0.0
 33
0.0
 40
0.0
 40
0.0
 40
0.0
 40
0.0
 40
1.0
 40
1.0
 40
1.0
 40
2.0
 40
2.0
 40
2.0
 40
3.0
 40
3.0
 40
3.0
 40
4.0
 40
4.0
 40
4.0
 40
5.0
 40
5.0
 40
5.0
 40
6.0
 40
6.0
 40
6.0
 40
7.0
 40
7.0
 40
7.0
 40
8.0
 40
8.0
 40
8.0
 40
9.0
 40
9.0
 40
9.0
 40
9.0
 10
97.27616900778439
 20
-154.6593146885963
 30
0.0
 10
97.27616900778439
 20
-154.6593146885963
 30
0.0
 10
98.86366580854605
 20
-154.6593146885963
 30
0.0
 10
98.86366580854605
 20
-154.6593146885963
 30
0.0
 10
98.86366580854605
 20
-154.6593146885963
 30
0.0
 10
98.86366580854605
 20
-177.0900570213441
 30
0.0
 10
98.86366580854605
 20
-177.0900570213441
 30
0.0
 10
98.86366580854605
 20
-177.3649288777154
 30
0.0
 10
99.088560963758
 20
-177.5898240329273
 30
0.0
 10
99.36343282012932
 20
-177.5898240329273
 30
0.0
 10
99.36343282012932
 20
-177.5898240329273
 30
0.0
 10
99.36343381966412
 20
-177.5898240329273
 30
0.0
 10
99.36343381966412
 20
-177.5898240329273
 30
0.0
 10
99.63830567603415
 20
-177.5898240329273
 30
0.0
 10
99.8632008312474
 20
-177.3649288777154
 30
0.0
 10
99.8632008312474
 20
-177.0900570213441
 30
0.0
 10
99.8632008312474
 20
-177.0900570213441
 30
0.0
 10
99.8632008312474
 20
-154.1448478829109
 30
0.0
 10
99.8632008312474
 20
-154.1448478829109
 30
0.0
 10
99.8632008312474
 20
-153.8699760265396
 30
0.0
 10
99.63830567603415
 20
-153.6450808713276
 30
0.0
 10
99.36343381966412
 20
-153.6450808713276
 30
0.0
 10
99.36343381966412
 20
-153.6450808713276
 30
0.0
 10
99.36343282012932
 20
-153.6450808713276
 30
0.0
 10
99.36343282012932
 20
-153.6450808713276
 30
0.0
 10
99.36343282012932
 20
-153.6450808713276
 30
0.0
 10
97.2759648382637
 20
-153.6450808713276
 30
0.0
 10
97.27616900778439
 20
-153.6450808714791
 30
0.0
  0
ENDBLK
  5
1FB
330
1F8
100
AcDbEntity
  8
0
100
AcDbBlockEnd
  0
BLOCK
  5
25C
330
25A
100
AcDbEntity
  8
0
100
AcDbBlockBegin
  2
block 10
 70
     0
 10
0.0
 20
0.0
 30
0.0
  3
block 10
  1

  0
POLYLINE
  5
25E
330
25A
100
AcDbEntity
  8
Capa 1
 62
   250
370
     9
100
AcDb2dPolyline
 66
     1
 10
0.0
 20
0.0
 30
0.0
  0
VERTEX
  5
25F
330
25E
100
AcDbEntity
  8
Capa 1
 62
   250
370
     9
100
AcDbVertex
100
AcDb2dVertex
 10
71.50025940142487
 20
-177.8881383601899
 30
0.0
  0
VERTEX
  5
260
330
25E
100
AcDbEntity
  8
Capa 1
 62
   250
370
     9
100
AcDbVertex
100
AcDb2dVertex
 10
71.50025940142487
 20
-174.9887518421494
 30
0.0
  0
VERTEX
  5
261
330
25E
100
AcDbEntity
  8
Capa 1
 62
   250
370
     9
100
AcDbVertex
100
AcDb2dVertex
 10
70.42626352582428
 20
-174.9887518421494
 30
0.0
  0
VERTEX
  5
262
330
25E
100
AcDbEntity
  8
Capa 1
 62
   250
370
     9
100
AcDbVertex
100
AcDb2dVertex
 10
70.42626352582428
 20
-170.3181304677433
 30
0.0
  0
VERTEX
  5
263
330
25E
100
AcDbEntity
  8
Capa 1
 62
   250
370
     9
100
AcDbVertex
100
AcDb2dVertex
 10
83.03804366520592
 20
-170.3181304677433
 30
0.0
  0
VERTEX
  5
264
330
25E
100
AcDbEntity
  8
Capa 1
 62
   250
370
     9
100
AcDbVertex
100
AcDb2dVertex
 10
83.03804366520592
 20
-174.9887518421494
 30
0.0
  0
VERTEX
  5
265
330
25E
100
AcDbEntity
  8
Capa 1
 62
   250
370
     9
100
AcDbVertex
100
AcDb2dVertex
 10
81.77993421075467
 20
-174.9887518421494
 30
0.0
  0
VERTEX
  5
266
330
25E
100
AcDbEntity
  8
Capa 1
 62
   250
370
     9
100
AcDbVertex
100
AcDb2dVertex
 10
81.77993421075467
 20
-177.8881383601899
 30
0.0
  0
VERTEX
  5
267
330
25E
100
AcDbEntity
  8
Capa 1
 62
   250
370
     9
100
AcDbVertex
100
AcDb2dVertex
 10
71.50025940142487
 20
-177.8881383601899
 30
0.0
  0
SEQEND
  5
268
330
25E
100
AcDbEntity
  8
Capa 1
 62
   250
370
     9
  0
INSERT
  5
26A
330
25A
100
AcDbEntity
  8
Capa 1
100
AcDbBlockReference
  2
block 11
 10
0.0
 20
0.0
 30
0.0
  0
ENDBLK
  5
25D
330
25A
100
AcDbEntity
  8
0
100
AcDbBlockEnd
  0
BLOCK
  5
26B
330
269
100
AcDbEntity
  8
0
100
AcDbBlockBegin
  2
block 11
 70
     0
 10
0.0
 20
0.0
 30
0.0
  3
block 11
  1

  0
SPLINE
  5
26D
330
269
100
AcDbEntity
  8
Capa 1
 62
   250
370
     9
100
AcDbSpline
210
0.0
220
0.0
230
1.0
 70
    11
 71
     3
 72
    23
 73
    19
 74
     0
 42
0.0000000001
 43
0.0000000001
 12
1.0
 22
0.0
 32
0.0
 13
1.0
 23
0.0
 33
0.0
 40
0.0
 40
0.0
 40
0.0
 40
0.0
 40
1.0
 40
1.0
 40
1.0
 40
2.0
 40
2.0
 40
2.0
 40
3.0
 40
3.0
 40
3.0
 40
4.0
 40
4.0
 40
4.0
 40
5.0
 40
5.0
 40
5.0
 40
6.0
 40
6.0
 40
6.0
 40
6.0
 10
74.53813344955633
 20
-170.3181304677433
 30
0.0
 10
74.53813344955633
 20
-170.3181304677433
 30
0.0
 10
74.53813344955633
 20
-173.8716230421285
 30
0.0
 10
74.53813344955633
 20
-173.8716230421285
 30
0.0
 10
74.53813344955633
 20
-174.2596785975872
 30
0.0
 10
74.20672834015393
 20
-174.5771785975077
 30
0.0
 10
73.80167765088628
 20
-174.5771785975077
 30
0.0
 10
73.80167765088628
 20
-174.5771785975077
 30
0.0
 10
72.23671520009557
 20
-174.5771785975077
 30
0.0
 10
72.23671520009557
 20
-174.5771785975077
 30
0.0
 10
71.83166451082727
 20
-174.5771785975077
 30
0.0
 10
71.50025940142487
 20
-174.2596785975872
 30
0.0
 10
71.50025940142487
 20
-173.8716230421285
 30
0.0
 10
71.50025940142487
 20
-173.8716230421285
 30
0.0
 10
71.50025940142487
 20
-170.3181304677433
 30
0.0
 10
71.50025940142487
 20
-170.3181304677433
 30
0.0
 10
71.50025940142487
 20
-170.3181304677433
 30
0.0
 10
74.53813344955633
 20
-170.3181304677433
 30
0.0
 10
74.53813344955633
 20
-170.3181304677433
 30
0.0
  0
SPLINE
  5
26E
330
269
100
AcDbEntity
  8
Capa 1
 62
   250
370
     9
100
AcDbSpline
210
0.0
220
0.0
230
1.0
 70
    11
 71
     3
 72
    23
 73
    19
 74
     0
 42
0.0000000001
 43
0.0000000001
 12
1.0
 22
0.0
 32
0.0
 13
1.0
 23
0.0
 33
0.0
 40
0.0
 40
0.0
 40
0.0
 40
0.0
 40
1.0
 40
1.0
 40
1.0
 40
2.0
 40
2.0
 40
2.0
 40
3.0
 40
3.0
 40
3.0
 40
4.0
 40
4.0
 40
4.0
 40
5.0
 40
5.0
 40
5.0
 40
6.0
 40
6.0
 40
6.0
 40
6.0
 10
74.53813344955633
 20
-170.3181304677433
 30
0.0
 10
74.53813344955633
 20
-170.3181304677433
 30
0.0
 10
74.53813344955633
 20
-175.1210418205049
 30
0.0
 10
74.53813344955633
 20
-175.1210418205049
 30
0.0
 10
74.53813344955633
 20
-175.5090973759636
 30
0.0
 10
74.20672834015393
 20
-175.8265973758841
 30
0.0
 10
73.80167765088628
 20
-175.8265973758841
 30
0.0
 10
73.80167765088628
 20
-175.8265973758841
 30
0.0
 10
73.75565222416193
 20
-175.8265973758841
 30
0.0
 10
73.75565222416193
 20
-175.8265973758841
 30
0.0
 10
73.35060153489235
 20
-175.8265973758841
 30
0.0
 10
73.01919642549124
 20
-175.5090973759636
 30
0.0
 10
73.01919642549124
 20
-175.1210418205049
 30
0.0
 10
73.01919642549124
 20
-175.1210418205049
 30
0.0
 10
73.01919642549124
 20
-170.3181304677433
 30
0.0
 10
73.01919642549124
 20
-170.3181304677433
 30
0.0
 10
73.01919642549124
 20
-170.3181304677433
 30
0.0
 10
74.53813344955633
 20
-170.3181304677433
 30
0.0
 10
74.53813344955633
 20
-170.3181304677433
 30
0.0
  0
SPLINE
  5
26F
330
269
100
AcDbEntity
  8
Capa 1
 62
   250
370
     9
100
AcDbSpline
210
0.0
220
0.0
230
1.0
 70
    11
 71
     3
 72
    23
 73
    19
 74
     0
 42
0.0000000001
 43
0.0000000001
 12
1.0
 22
0.0
 32
0.0
 13
1.0
 23
0.0
 33
0.0
 40
0.0
 40
0.0
 40
0.0
 40
0.0
 40
1.0
 40
1.0
 40
1.0
 40
2.0
 40
2.0
 40
2.0
 40
3.0
 40
3.0
 40
3.0
 40
4.0
 40
4.0
 40
4.0
 40
5.0
 40
5.0
 40
5.0
 40
6.0
 40
6.0
 40
6.0
 40
6.0
 10
78.77378965961617
 20
-170.3181304676785
 30
0.0
 10
78.77378965961617
 20
-170.3181304676785
 30
0.0
 10
78.77378965935243
 20
-173.8716230420637
 30
0.0
 10
78.77378965935243
 20
-173.8716230420637
 30
0.0
 10
78.77378965933383
 20
-174.2596785975224
 30
0.0
 10
79.10519476871953
 20
-174.577178597457
 30
0.0
 10
79.51024545798911
 20
-174.5771785974743
 30
0.0
 10
79.51024545798911
 20
-174.5771785974743
 30
0.0
 10
81.0752079087779
 20
-174.5771785975417
 30
0.0
 10
81.0752079087779
 20
-174.5771785975417
 30
0.0
 10
81.48025859804748
 20
-174.577178597559
 30
0.0
 10
81.81166370746271
 20
-174.2596785976527
 30
0.0
 10
81.81166370748132
 20
-173.871623042194
 30
0.0
 10
81.81166370748132
 20
-173.871623042194
 30
0.0
 10
81.8116637077457
 20
-170.3181304678088
 30
0.0
 10
81.8116637077457
 20
-170.3181304678088
 30
0.0
 10
81.8116637077457
 20
-170.3181304678088
 30
0.0
 10
78.77378965961617
 20
-170.3181304676785
 30
0.0
 10
78.77378965961617
 20
-170.3181304676785
 30
0.0
  0
SPLINE
  5
270
330
269
100
AcDbEntity
  8
Capa 1
 62
   250
370
     9
100
AcDbSpline
210
0.0
220
0.0
230
1.0
 70
    11
 71
     3
 72
    23
 73
    19
 74
     0
 42
0.0000000001
 43
0.0000000001
 12
1.0
 22
0.0
 32
0.0
 13
1.0
 23
0.0
 33
0.0
 40
0.0
 40
0.0
 40
0.0
 40
0.0
 40
1.0
 40
1.0
 40
1.0
 40
2.0
 40
2.0
 40
2.0
 40
3.0
 40
3.0
 40
3.0
 40
4.0
 40
4.0
 40
4.0
 40
5.0
 40
5.0
 40
5.0
 40
6.0
 40
6.0
 40
6.0
 40
6.0
 10
78.77378965961617
 20
-170.3181304676785
 30
0.0
 10
78.77378965961617
 20
-170.3181304676785
 30
0.0
 10
78.7737896592934
 20
-175.1210418204401
 30
0.0
 10
78.7737896592934
 20
-175.1210418204401
 30
0.0
 10
78.77378965927414
 20
-175.5090973758987
 30
0.0
 10
79.10519476866178
 20
-175.8265973758334
 30
0.0
 10
79.51024545793008
 20
-175.8265973758507
 30
0.0
 10
79.51024545793008
 20
-175.8265973758507
 30
0.0
 10
79.55627088465442
 20
-175.8265973758526
 30
0.0
 10
79.55627088465442
 20
-175.8265973758526
 30
0.0
 10
79.96132157392401
 20
-175.8265973758699
 30
0.0
 10
80.29272668334052
 20
-175.5090973759636
 30
0.0
 10
80.29272668335784
 20
-175.1210418205049
 30
0.0
 10
80.29272668335784
 20
-175.1210418205049
 30
0.0
 10
80.29272668368061
 20
-170.3181304677433
 30
0.0
 10
80.29272668368061
 20
-170.3181304677433
 30
0.0
 10
80.29272668368061
 20
-170.3181304677433
 30
0.0
 10
78.77378965961617
 20
-170.3181304676785
 30
0.0
 10
78.77378965961617
 20
-170.3181304676785
 30
0.0
  0
ENDBLK
  5
26C
330
269
100
AcDbEntity
  8
0
100
AcDbBlockEnd
  0
BLOCK
  5
273
330
271
100
AcDbEntity
  8
0
100
AcDbBlockBegin
  2
block 12
 70
     0
 10
0.0
 20
0.0
 30
0.0
  3
block 12
  1

  0
POLYLINE
  5
275
330
271
100
AcDbEntity
  8
Capa 1
 62
   250
370
     9
100
AcDb2dPolyline
 66
     1
 10
0.0
 20
0.0
 30
0.0
  0
VERTEX
  5
276
330
275
100
AcDbEntity
  8
Capa 1
 62
   250
370
     9
100
AcDbVertex
100
AcDb2dVertex
 10
110.9387612954236
 20
-177.8881383601899
 30
0.0
  0
VERTEX
  5
277
330
275
100
AcDbEntity
  8
Capa 1
 62
   250
370
     9
100
AcDbVertex
100
AcDb2dVertex
 10
110.9387612954236
 20
-174.9887518421494
 30
0.0
  0
VERTEX
  5
278
330
275
100
AcDbEntity
  8
Capa 1
 62
   250
370
     9
100
AcDbVertex
100
AcDb2dVertex
 10
109.864765419823
 20
-174.9887518421494
 30
0.0
  0
VERTEX
  5
279
330
275
100
AcDbEntity
  8
Capa 1
 62
   250
370
     9
100
AcDbVertex
100
AcDb2dVertex
 10
109.864765419823
 20
-170.3181304677433
 30
0.0
  0
VERTEX
  5
27A
330
275
100
AcDbEntity
  8
Capa 1
 62
   250
370
     9
100
AcDbVertex
100
AcDb2dVertex
 10
122.4765455592047
 20
-170.3181304677433
 30
0.0
  0
VERTEX
  5
27B
330
275
100
AcDbEntity
  8
Capa 1
 62
   250
370
     9
100
AcDbVertex
100
AcDb2dVertex
 10
122.4765455592047
 20
-174.9887518421494
 30
0.0
  0
VERTEX
  5
27C
330
275
100
AcDbEntity
  8
Capa 1
 62
   250
370
     9
100
AcDbVertex
100
AcDb2dVertex
 10
121.2184361047534
 20
-174.9887518421494
 30
0.0
  0
VERTEX
  5
27D
330
275
100
AcDbEntity
  8
Capa 1
 62
   250
370
     9
100
AcDbVertex
100
AcDb2dVertex
 10
121.2184361047534
 20
-177.8881383601899
 30
0.0
  0
VERTEX
  5
27E
330
275
100
AcDbEntity
  8
Capa 1
 62
   250
370
     9
100
AcDbVertex
100
AcDb2dVertex
 10
110.9387612954236
 20
-177.8881383601899
 30
0.0
  0
SEQEND
  5
27F
330
275
100
AcDbEntity
  8
Capa 1
 62
   250
370
     9
  0
INSERT
  5
281
330
271
100
AcDbEntity
  8
Capa 1
100
AcDbBlockReference
  2
block 13
 10
0.0
 20
0.0
 30
0.0
  0
ENDBLK
  5
274
330
271
100
AcDbEntity
  8
0
100
AcDbBlockEnd
  0
BLOCK
  5
282
330
280
100
AcDbEntity
  8
0
100
AcDbBlockBegin
  2
block 13
 70
     0
 10
0.0
 20
0.0
 30
0.0
  3
block 13
  1

  0
SPLINE
  5
284
330
280
100
AcDbEntity
  8
Capa 1
 62
   250
370
     9
100
AcDbSpline
210
0.0
220
0.0
230
1.0
 70
    11
 71
     3
 72
    23
 73
    19
 74
     0
 42
0.0000000001
 43
0.0000000001
 12
1.0
 22
0.0
 32
0.0
 13
1.0
 23
0.0
 33
0.0
 40
0.0
 40
0.0
 40
0.0
 40
0.0
 40
1.0
 40
1.0
 40
1.0
 40
2.0
 40
2.0
 40
2.0
 40
3.0
 40
3.0
 40
3.0
 40
4.0
 40
4.0
 40
4.0
 40
5.0
 40
5.0
 40
5.0
 40
6.0
 40
6.0
 40
6.0
 40
6.0
 10
113.9766353435551
 20
-170.3181304677433
 30
0.0
 10
113.9766353435551
 20
-170.3181304677433
 30
0.0
 10
113.9766353435551
 20
-173.8716230421285
 30
0.0
 10
113.9766353435551
 20
-173.8716230421285
 30
0.0
 10
113.9766353435551
 20
-174.2596785975872
 30
0.0
 10
113.6452302341527
 20
-174.5771785975077
 30
0.0
 10
113.240179544885
 20
-174.5771785975077
 30
0.0
 10
113.240179544885
 20
-174.5771785975077
 30
0.0
 10
111.6752170940943
 20
-174.5771785975077
 30
0.0
 10
111.6752170940943
 20
-174.5771785975077
 30
0.0
 10
111.270166404826
 20
-174.5771785975077
 30
0.0
 10
110.9387612954236
 20
-174.2596785975872
 30
0.0
 10
110.9387612954236
 20
-173.8716230421285
 30
0.0
 10
110.9387612954236
 20
-173.8716230421285
 30
0.0
 10
110.9387612954236
 20
-170.3181304677433
 30
0.0
 10
110.9387612954236
 20
-170.3181304677433
 30
0.0
 10
110.9387612954236
 20
-170.3181304677433
 30
0.0
 10
113.9766353435551
 20
-170.3181304677433
 30
0.0
 10
113.9766353435551
 20
-170.3181304677433
 30
0.0
  0
SPLINE
  5
285
330
280
100
AcDbEntity
  8
Capa 1
 62
   250
370
     9
100
AcDbSpline
210
0.0
220
0.0
230
1.0
 70
    11
 71
     3
 72
    23
 73
    19
 74
     0
 42
0.0000000001
 43
0.0000000001
 12
1.0
 22
0.0
 32
0.0
 13
1.0
 23
0.0
 33
0.0
 40
0.0
 40
0.0
 40
0.0
 40
0.0
 40
1.0
 40
1.0
 40
1.0
 40
2.0
 40
2.0
 40
2.0
 40
3.0
 40
3.0
 40
3.0
 40
4.0
 40
4.0
 40
4.0
 40
5.0
 40
5.0
 40
5.0
 40
6.0
 40
6.0
 40
6.0
 40
6.0
 10
113.9766353435551
 20
-170.3181304677433
 30
0.0
 10
113.9766353435551
 20
-170.3181304677433
 30
0.0
 10
113.9766353435551
 20
-175.1210418205049
 30
0.0
 10
113.9766353435551
 20
-175.1210418205049
 30
0.0
 10
113.9766353435551
 20
-175.5090973759636
 30
0.0
 10
113.6452302341527
 20
-175.8265973758841
 30
0.0
 10
113.240179544885
 20
-175.8265973758841
 30
0.0
 10
113.240179544885
 20
-175.8265973758841
 30
0.0
 10
113.1941541181607
 20
-175.8265973758841
 30
0.0
 10
113.1941541181607
 20
-175.8265973758841
 30
0.0
 10
112.7891034288911
 20
-175.8265973758841
 30
0.0
 10
112.45769831949
 20
-175.5090973759636
 30
0.0
 10
112.45769831949
 20
-175.1210418205049
 30
0.0
 10
112.45769831949
 20
-175.1210418205049
 30
0.0
 10
112.45769831949
 20
-170.3181304677433
 30
0.0
 10
112.45769831949
 20
-170.3181304677433
 30
0.0
 10
112.45769831949
 20
-170.3181304677433
 30
0.0
 10
113.9766353435551
 20
-170.3181304677433
 30
0.0
 10
113.9766353435551
 20
-170.3181304677433
 30
0.0
  0
SPLINE
  5
286
330
280
100
AcDbEntity
  8
Capa 1
 62
   250
370
     9
100
AcDbSpline
210
0.0
220
0.0
230
1.0
 70
    11
 71
     3
 72
    23
 73
    19
 74
     0
 42
0.0000000001
 43
0.0000000001
 12
1.0
 22
0.0
 32
0.0
 13
1.0
 23
0.0
 33
0.0
 40
0.0
 40
0.0
 40
0.0
 40
0.0
 40
1.0
 40
1.0
 40
1.0
 40
2.0
 40
2.0
 40
2.0
 40
3.0
 40
3.0
 40
3.0
 40
4.0
 40
4.0
 40
4.0
 40
5.0
 40
5.0
 40
5.0
 40
6.0
 40
6.0
 40
6.0
 40
6.0
 10
118.2122915536149
 20
-170.3181304676785
 30
0.0
 10
118.2122915536149
 20
-170.3181304676785
 30
0.0
 10
118.2122915533512
 20
-173.8716230420637
 30
0.0
 10
118.2122915533512
 20
-173.8716230420637
 30
0.0
 10
118.2122915533326
 20
-174.2596785975224
 30
0.0
 10
118.5436966627183
 20
-174.577178597457
 30
0.0
 10
118.9487473519879
 20
-174.5771785974743
 30
0.0
 10
118.9487473519879
 20
-174.5771785974743
 30
0.0
 10
120.5137098027766
 20
-174.5771785975417
 30
0.0
 10
120.5137098027766
 20
-174.5771785975417
 30
0.0
 10
120.9187604920462
 20
-174.577178597559
 30
0.0
 10
121.2501656014615
 20
-174.2596785976527
 30
0.0
 10
121.2501656014801
 20
-173.871623042194
 30
0.0
 10
121.2501656014801
 20
-173.871623042194
 30
0.0
 10
121.2501656017445
 20
-170.3181304678088
 30
0.0
 10
121.2501656017445
 20
-170.3181304678088
 30
0.0
 10
121.2501656017445
 20
-170.3181304678088
 30
0.0
 10
118.2122915536149
 20
-170.3181304676785
 30
0.0
 10
118.2122915536149
 20
-170.3181304676785
 30
0.0
  0
SPLINE
  5
287
330
280
100
AcDbEntity
  8
Capa 1
 62
   250
370
     9
100
AcDbSpline
210
0.0
220
0.0
230
1.0
 70
    11
 71
     3
 72
    23
 73
    19
 74
     0
 42
0.0000000001
 43
0.0000000001
 12
1.0
 22
0.0
 32
0.0
 13
1.0
 23
0.0
 33
0.0
 40
0.0
 40
0.0
 40
0.0
 40
0.0
 40
1.0
 40
1.0
 40
1.0
 40
2.0
 40
2.0
 40
2.0
 40
3.0
 40
3.0
 40
3.0
 40
4.0
 40
4.0
 40
4.0
 40
5.0
 40
5.0
 40
5.0
 40
6.0
 40
6.0
 40
6.0
 40
6.0
 10
118.2122915536149
 20
-170.3181304676785
 30
0.0
 10
118.2122915536149
 20
-170.3181304676785
 30
0.0
 10
118.2122915532921
 20
-175.1210418204401
 30
0.0
 10
118.2122915532921
 20
-175.1210418204401
 30
0.0
 10
118.2122915532729
 20
-175.5090973758987
 30
0.0
 10
118.5436966626605
 20
-175.8265973758334
 30
0.0
 10
118.9487473519288
 20
-175.8265973758507
 30
0.0
 10
118.9487473519288
 20
-175.8265973758507
 30
0.0
 10
118.9947727786532
 20
-175.8265973758526
 30
0.0
 10
118.9947727786532
 20
-175.8265973758526
 30
0.0
 10
119.3998234679228
 20
-175.8265973758699
 30
0.0
 10
119.7312285773393
 20
-175.5090973759636
 30
0.0
 10
119.7312285773566
 20
-175.1210418205049
 30
0.0
 10
119.7312285773566
 20
-175.1210418205049
 30
0.0
 10
119.7312285776794
 20
-170.3181304677433
 30
0.0
 10
119.7312285776794
 20
-170.3181304677433
 30
0.0
 10
119.7312285776794
 20
-170.3181304677433
 30
0.0
 10
118.2122915536149
 20
-170.3181304676785
 30
0.0
 10
118.2122915536149
 20
-170.3181304676785
 30
0.0
  0
ENDBLK
  5
283
330
280
100
AcDbEntity
  8
0
100
AcDbBlockEnd
  0
BLOCK
  5
292
330
290
100
AcDbEntity
  8
0
100
AcDbBlockBegin
  2
block 14
 70
     0
 10
0.0
 20
0.0
 30
0.0
  3
block 14
  1

  0
POLYLINE
  5
294
330
290
100
AcDbEntity
  8
Capa 1
 62
   250
370
    25
100
AcDb2dPolyline
 66
     1
 10
0.0
 20
0.0
 30
0.0
  0
VERTEX
  5
295
330
294
100
AcDbEntity
  8
Capa 1
 62
   250
370
    25
100
AcDbVertex
100
AcDb2dVertex
 10
146.818753108179
 20
-181.4085815409466
 30
0.0
  0
VERTEX
  5
296
330
294
100
AcDbEntity
  8
Capa 1
 62
   250
370
    25
100
AcDbVertex
100
AcDb2dVertex
 10
145.4145752520841
 20
-181.4085815409466
 30
0.0
  0
VERTEX
  5
297
330
294
100
AcDbEntity
  8
Capa 1
 62
   250
370
    25
100
AcDbVertex
100
AcDb2dVertex
 10
145.4145752520841
 20
-179.6909430593882
 30
0.0
  0
VERTEX
  5
298
330
294
100
AcDbEntity
  8
Capa 1
 62
   250
370
    25
100
AcDbVertex
100
AcDb2dVertex
 10
146.818753108179
 20
-179.6909430593882
 30
0.0
  0
VERTEX
  5
299
330
294
100
AcDbEntity
  8
Capa 1
 62
   250
370
    25
100
AcDbVertex
100
AcDb2dVertex
 10
146.818753108179
 20
-181.4085815409466
 30
0.0
  0
SEQEND
  5
29A
330
294
100
AcDbEntity
  8
Capa 1
 62
   250
370
    25
  0
POLYLINE
  5
29B
330
290
100
AcDbEntity
  8
Capa 1
 62
   250
370
    25
100
AcDb2dPolyline
 66
     1
 10
0.0
 20
0.0
 30
0.0
  0
VERTEX
  5
29C
330
29B
100
AcDbEntity
  8
Capa 1
 62
   250
370
    25
100
AcDbVertex
100
AcDb2dVertex
 10
163.8023848313636
 20
-180.137092161269
 30
0.0
  0
VERTEX
  5
29D
330
29B
100
AcDbEntity
  8
Capa 1
 62
   250
370
    25
100
AcDbVertex
100
AcDb2dVertex
 10
163.8023848313636
 20
-182.9395389108981
 30
0.0
  0
VERTEX
  5
29E
330
29B
100
AcDbEntity
  8
Capa 1
 62
   250
370
    25
100
AcDbVertex
100
AcDb2dVertex
 10
167.1554962671573
 20
-182.9395389108981
 30
0.0
  0
VERTEX
  5
29F
330
29B
100
AcDbEntity
  8
Capa 1
 62
   250
370
    25
100
AcDbVertex
100
AcDb2dVertex
 10
167.1554962671573
 20
-182.4167672028582
 30
0.0
  0
VERTEX
  5
2A0
330
29B
100
AcDbEntity
  8
Capa 1
 62
   250
370
    25
100
AcDbVertex
100
AcDb2dVertex
 10
174.5488003695848
 20
-182.4167672028582
 30
0.0
  0
VERTEX
  5
2A1
330
29B
100
AcDbEntity
  8
Capa 1
 62
   250
370
    25
100
AcDbVertex
100
AcDb2dVertex
 10
174.5488003695848
 20
-178.1973434436049
 30
0.0
  0
VERTEX
  5
2A2
330
29B
100
AcDbEntity
  8
Capa 1
 62
   250
370
    25
100
AcDbVertex
100
AcDb2dVertex
 10
167.1554962671573
 20
-178.1973434436049
 30
0.0
  0
VERTEX
  5
2A3
330
29B
100
AcDbEntity
  8
Capa 1
 62
   250
370
    25
100
AcDbVertex
100
AcDb2dVertex
 10
164.743111217304
 20
-176.3676962950823
 30
0.0
  0
VERTEX
  5
2A4
330
29B
100
AcDbEntity
  8
Capa 1
 62
   250
370
    25
100
AcDbVertex
100
AcDb2dVertex
 10
164.743111217304
 20
-175.2474804343597
 30
0.0
  0
VERTEX
  5
2A5
330
29B
100
AcDbEntity
  8
Capa 1
 62
   250
370
    25
100
AcDbVertex
100
AcDb2dVertex
 10
166.1473321370918
 20
-175.2474804343597
 30
0.0
  0
VERTEX
  5
2A6
330
29B
100
AcDbEntity
  8
Capa 1
 62
   250
370
    25
100
AcDbVertex
100
AcDb2dVertex
 10
166.1473321370918
 20
-170.6920091423671
 30
0.0
  0
VERTEX
  5
2A7
330
29B
100
AcDbEntity
  8
Capa 1
 62
   250
370
    25
100
AcDbVertex
100
AcDb2dVertex
 10
164.743111217304
 20
-170.6920091423671
 30
0.0
  0
VERTEX
  5
2A8
330
29B
100
AcDbEntity
  8
Capa 1
 62
   250
370
    25
100
AcDbVertex
100
AcDb2dVertex
 10
164.743111217304
 20
-169.6838234804555
 30
0.0
  0
VERTEX
  5
2A9
330
29B
100
AcDbEntity
  8
Capa 1
 62
   250
370
    25
100
AcDbVertex
100
AcDb2dVertex
 10
166.1473321370918
 20
-169.6838234804555
 30
0.0
  0
VERTEX
  5
2AA
330
29B
100
AcDbEntity
  8
Capa 1
 62
   250
370
    25
100
AcDbVertex
100
AcDb2dVertex
 10
166.1473321370918
 20
-161.3223183555928
 30
0.0
  0
VERTEX
  5
2AB
330
29B
100
AcDbEntity
  8
Capa 1
 62
   250
370
    25
100
AcDbVertex
100
AcDb2dVertex
 10
164.743111217304
 20
-161.3223183555928
 30
0.0
  0
VERTEX
  5
2AC
330
29B
100
AcDbEntity
  8
Capa 1
 62
   250
370
    25
100
AcDbVertex
100
AcDb2dVertex
 10
164.743111217304
 20
-155.4554284034462
 30
0.0
  0
VERTEX
  5
2AD
330
29B
100
AcDbEntity
  8
Capa 1
 62
   250
370
    25
100
AcDbVertex
100
AcDb2dVertex
 10
165.654425100541
 20
-155.1026506257566
 30
0.0
  0
VERTEX
  5
2AE
330
29B
100
AcDbEntity
  8
Capa 1
 62
   250
370
    25
100
AcDbVertex
100
AcDb2dVertex
 10
165.654425100541
 20
-152.5028739133532
 30
0.0
  0
VERTEX
  5
2AF
330
29B
100
AcDbEntity
  8
Capa 1
 62
   250
370
    25
100
AcDbVertex
100
AcDb2dVertex
 10
164.743111217304
 20
-152.1500961356636
 30
0.0
  0
VERTEX
  5
2B0
330
29B
100
AcDbEntity
  8
Capa 1
 62
   250
370
    25
100
AcDbVertex
100
AcDb2dVertex
 10
164.743111217304
 20
-149.5885599831464
 30
0.0
  0
VERTEX
  5
2B1
330
29B
100
AcDbEntity
  8
Capa 1
 62
   250
370
    25
100
AcDbVertex
100
AcDb2dVertex
 10
163.8023848313636
 20
-149.5885599831464
 30
0.0
  0
VERTEX
  5
2B2
330
29B
100
AcDbEntity
  8
Capa 1
 62
   250
370
    25
100
AcDbVertex
100
AcDb2dVertex
 10
163.8023848313636
 20
-146.7702565577442
 30
0.0
  0
VERTEX
  5
2B3
330
29B
100
AcDbEntity
  8
Capa 1
 62
   250
370
    25
100
AcDbVertex
100
AcDb2dVertex
 10
164.743111217304
 20
-146.7702565577442
 30
0.0
  0
VERTEX
  5
2B4
330
29B
100
AcDbEntity
  8
Capa 1
 62
   250
370
    25
100
AcDbVertex
100
AcDb2dVertex
 10
167.050894555487
 20
-144.1832266986362
 30
0.0
  0
VERTEX
  5
2B5
330
29B
100
AcDbEntity
  8
Capa 1
 62
   250
370
    25
100
AcDbVertex
100
AcDb2dVertex
 10
167.050894555487
 20
-131.5861489294331
 30
0.0
  0
VERTEX
  5
2B6
330
29B
100
AcDbEntity
  8
Capa 1
 62
   250
370
    25
100
AcDbVertex
100
AcDb2dVertex
 10
164.743111217304
 20
-128.188358911565
 30
0.0
  0
VERTEX
  5
2B7
330
29B
100
AcDbEntity
  8
Capa 1
 62
   250
370
    25
100
AcDbVertex
100
AcDb2dVertex
 10
164.743111217304
 20
-125.8976072641885
 30
0.0
  0
VERTEX
  5
2B8
330
29B
100
AcDbEntity
  8
Capa 1
 62
   250
370
    25
100
AcDbVertex
100
AcDb2dVertex
 10
165.5956862225175
 20
-125.5448294864989
 30
0.0
  0
VERTEX
  5
2B9
330
29B
100
AcDbEntity
  8
Capa 1
 62
   250
370
    25
100
AcDbVertex
100
AcDb2dVertex
 10
165.5956862225175
 20
-122.9284086565324
 30
0.0
  0
VERTEX
  5
2BA
330
29B
100
AcDbEntity
  8
Capa 1
 62
   250
370
    25
100
AcDbVertex
100
AcDb2dVertex
 10
164.743111217304
 20
-122.5756308788428
 30
0.0
  0
VERTEX
  5
2BB
330
29B
100
AcDbEntity
  8
Capa 1
 62
   250
370
    25
100
AcDbVertex
100
AcDb2dVertex
 10
164.743111217304
 20
-111.9335156064382
 30
0.0
  0
VERTEX
  5
2BC
330
29B
100
AcDbEntity
  8
Capa 1
 62
   250
370
    25
100
AcDbVertex
100
AcDb2dVertex
 10
166.1248528890519
 20
-111.9335156064382
 30
0.0
  0
VERTEX
  5
2BD
330
29B
100
AcDbEntity
  8
Capa 1
 62
   250
370
    25
100
AcDbVertex
100
AcDb2dVertex
 10
166.1248528890519
 20
-102.1439538073991
 30
0.0
  0
VERTEX
  5
2BE
330
29B
100
AcDbEntity
  8
Capa 1
 62
   250
370
    25
100
AcDbVertex
100
AcDb2dVertex
 10
164.743111217304
 20
-102.1439538073991
 30
0.0
  0
VERTEX
  5
2BF
330
29B
100
AcDbEntity
  8
Capa 1
 62
   250
370
    25
100
AcDbVertex
100
AcDb2dVertex
 10
164.7137417782936
 20
-102.1439538073991
 30
0.0
  0
VERTEX
  5
2C0
330
29B
100
AcDbEntity
  8
Capa 1
 62
   250
370
    25
100
AcDbVertex
100
AcDb2dVertex
 10
164.7137417782936
 20
-96.99928506004159
 30
0.0
  0
VERTEX
  5
2C1
330
29B
100
AcDbEntity
  8
Capa 1
 62
   250
370
    25
100
AcDbVertex
100
AcDb2dVertex
 10
167.0655362112994
 20
-96.99928506004159
 30
0.0
  0
VERTEX
  5
2C2
330
29B
100
AcDbEntity
  8
Capa 1
 62
   250
370
    25
100
AcDbVertex
100
AcDb2dVertex
 10
167.0655362112994
 20
-95.05900728274887
 30
0.0
  0
VERTEX
  5
2C3
330
29B
100
AcDbEntity
  8
Capa 1
 62
   250
370
    25
100
AcDbVertex
100
AcDb2dVertex
 10
163.3026306675352
 20
-95.05900728274887
 30
0.0
  0
VERTEX
  5
2C4
330
29B
100
AcDbEntity
  8
Capa 1
 62
   250
370
    25
100
AcDbVertex
100
AcDb2dVertex
 10
163.3026306675352
 20
-98.20127685527046
 30
0.0
  0
VERTEX
  5
2C5
330
29B
100
AcDbEntity
  8
Capa 1
 62
   250
370
    25
100
AcDbVertex
100
AcDb2dVertex
 10
148.2592767216433
 20
-98.20461766929945
 30
0.0
  0
VERTEX
  5
2C6
330
29B
100
AcDbEntity
  8
Capa 1
 62
   250
370
    25
100
AcDbVertex
100
AcDb2dVertex
 10
148.2592767216433
 20
-95.05900728274887
 30
0.0
  0
VERTEX
  5
2C7
330
29B
100
AcDbEntity
  8
Capa 1
 62
   250
370
    25
100
AcDbVertex
100
AcDb2dVertex
 10
144.4962850504907
 20
-95.05900728274887
 30
0.0
  0
VERTEX
  5
2C8
330
29B
100
AcDbEntity
  8
Capa 1
 62
   250
370
    25
100
AcDbVertex
100
AcDb2dVertex
 10
144.4962850504907
 20
-96.99928506004159
 30
0.0
  0
VERTEX
  5
2C9
330
29B
100
AcDbEntity
  8
Capa 1
 62
   250
370
    25
100
AcDbVertex
100
AcDb2dVertex
 10
146.8481656108849
 20
-96.99928506004159
 30
0.0
  0
VERTEX
  5
2CA
330
29B
100
AcDbEntity
  8
Capa 1
 62
   250
370
    25
100
AcDbVertex
100
AcDb2dVertex
 10
146.8481656108849
 20
-102.1439538073991
 30
0.0
  0
VERTEX
  5
2CB
330
29B
100
AcDbEntity
  8
Capa 1
 62
   250
370
    25
100
AcDbVertex
100
AcDb2dVertex
 10
146.818753108179
 20
-102.1439538073991
 30
0.0
  0
VERTEX
  5
2CC
330
29B
100
AcDbEntity
  8
Capa 1
 62
   250
370
    25
100
AcDbVertex
100
AcDb2dVertex
 10
145.4370545001266
 20
-102.1439538073991
 30
0.0
  0
VERTEX
  5
2CD
330
29B
100
AcDbEntity
  8
Capa 1
 62
   250
370
    25
100
AcDbVertex
100
AcDb2dVertex
 10
145.4370545001266
 20
-111.9335156064382
 30
0.0
  0
VERTEX
  5
2CE
330
29B
100
AcDbEntity
  8
Capa 1
 62
   250
370
    25
100
AcDbVertex
100
AcDb2dVertex
 10
146.818753108179
 20
-111.9335156064382
 30
0.0
  0
VERTEX
  5
2CF
330
29B
100
AcDbEntity
  8
Capa 1
 62
   250
370
    25
100
AcDbVertex
100
AcDb2dVertex
 10
146.818753108179
 20
-122.5756308788428
 30
0.0
  0
VERTEX
  5
2D0
330
29B
100
AcDbEntity
  8
Capa 1
 62
   250
370
    25
100
AcDbVertex
100
AcDb2dVertex
 10
145.966221166661
 20
-122.9284086565324
 30
0.0
  0
VERTEX
  5
2D1
330
29B
100
AcDbEntity
  8
Capa 1
 62
   250
370
    25
100
AcDbVertex
100
AcDb2dVertex
 10
145.966221166661
 20
-125.5448294864989
 30
0.0
  0
VERTEX
  5
2D2
330
29B
100
AcDbEntity
  8
Capa 1
 62
   250
370
    25
100
AcDbVertex
100
AcDb2dVertex
 10
146.818753108179
 20
-125.8976072641885
 30
0.0
  0
VERTEX
  5
2D3
330
29B
100
AcDbEntity
  8
Capa 1
 62
   250
370
    25
100
AcDbVertex
100
AcDb2dVertex
 10
146.818753108179
 20
-128.188358911565
 30
0.0
  0
VERTEX
  5
2D4
330
29B
100
AcDbEntity
  8
Capa 1
 62
   250
370
    25
100
AcDbVertex
100
AcDb2dVertex
 10
144.5110128336914
 20
-131.5861489294331
 30
0.0
  0
VERTEX
  5
2D5
330
29B
100
AcDbEntity
  8
Capa 1
 62
   250
370
    25
100
AcDbVertex
100
AcDb2dVertex
 10
144.5110128336914
 20
-144.1832266986362
 30
0.0
  0
VERTEX
  5
2D6
330
29B
100
AcDbEntity
  8
Capa 1
 62
   250
370
    25
100
AcDbVertex
100
AcDb2dVertex
 10
146.818753108179
 20
-146.7702565577442
 30
0.0
  0
VERTEX
  5
2D7
330
29B
100
AcDbEntity
  8
Capa 1
 62
   250
370
    25
100
AcDbVertex
100
AcDb2dVertex
 10
147.7594794941194
 20
-146.7702565577442
 30
0.0
  0
VERTEX
  5
2D8
330
29B
100
AcDbEntity
  8
Capa 1
 62
   250
370
    25
100
AcDbVertex
100
AcDb2dVertex
 10
147.7594794941194
 20
-149.5885599831464
 30
0.0
  0
VERTEX
  5
2D9
330
29B
100
AcDbEntity
  8
Capa 1
 62
   250
370
    25
100
AcDbVertex
100
AcDb2dVertex
 10
146.818753108179
 20
-149.5885599831464
 30
0.0
  0
VERTEX
  5
2DA
330
29B
100
AcDbEntity
  8
Capa 1
 62
   250
370
    25
100
AcDbVertex
100
AcDb2dVertex
 10
146.818753108179
 20
-152.1500961356636
 30
0.0
  0
VERTEX
  5
2DB
330
29B
100
AcDbEntity
  8
Capa 1
 62
   250
370
    25
100
AcDbVertex
100
AcDb2dVertex
 10
145.9073961612491
 20
-152.5028739133532
 30
0.0
  0
VERTEX
  5
2DC
330
29B
100
AcDbEntity
  8
Capa 1
 62
   250
370
    25
100
AcDbVertex
100
AcDb2dVertex
 10
145.9073961612491
 20
-155.1026506257566
 30
0.0
  0
VERTEX
  5
2DD
330
29B
100
AcDbEntity
  8
Capa 1
 62
   250
370
    25
100
AcDbVertex
100
AcDb2dVertex
 10
146.818753108179
 20
-155.4554284034462
 30
0.0
  0
VERTEX
  5
2DE
330
29B
100
AcDbEntity
  8
Capa 1
 62
   250
370
    25
100
AcDbVertex
100
AcDb2dVertex
 10
146.818753108179
 20
-161.3223183555928
 30
0.0
  0
VERTEX
  5
2DF
330
29B
100
AcDbEntity
  8
Capa 1
 62
   250
370
    25
100
AcDbVertex
100
AcDb2dVertex
 10
145.4145752520841
 20
-161.3223183555928
 30
0.0
  0
VERTEX
  5
2E0
330
29B
100
AcDbEntity
  8
Capa 1
 62
   250
370
    25
100
AcDbVertex
100
AcDb2dVertex
 10
145.4145752520841
 20
-169.6838234804555
 30
0.0
  0
VERTEX
  5
2E1
330
29B
100
AcDbEntity
  8
Capa 1
 62
   250
370
    25
100
AcDbVertex
100
AcDb2dVertex
 10
146.818753108179
 20
-169.6838234804555
 30
0.0
  0
VERTEX
  5
2E2
330
29B
100
AcDbEntity
  8
Capa 1
 62
   250
370
    25
100
AcDbVertex
100
AcDb2dVertex
 10
146.818753108179
 20
-170.6920091423671
 30
0.0
  0
VERTEX
  5
2E3
330
29B
100
AcDbEntity
  8
Capa 1
 62
   250
370
    25
100
AcDbVertex
100
AcDb2dVertex
 10
145.4145752520841
 20
-170.6920091423671
 30
0.0
  0
VERTEX
  5
2E4
330
29B
100
AcDbEntity
  8
Capa 1
 62
   250
370
    25
100
AcDbVertex
100
AcDb2dVertex
 10
145.4145752520841
 20
-175.2474804343597
 30
0.0
  0
VERTEX
  5
2E5
330
29B
100
AcDbEntity
  8
Capa 1
 62
   250
370
    25
100
AcDbVertex
100
AcDb2dVertex
 10
146.818753108179
 20
-175.2474804343597
 30
0.0
  0
VERTEX
  5
2E6
330
29B
100
AcDbEntity
  8
Capa 1
 62
   250
370
    25
100
AcDbVertex
100
AcDb2dVertex
 10
146.818753108179
 20
-176.3676962950823
 30
0.0
  0
VERTEX
  5
2E7
330
29B
100
AcDbEntity
  8
Capa 1
 62
   250
370
    25
100
AcDbVertex
100
AcDb2dVertex
 10
144.4063680583257
 20
-178.1973434436049
 30
0.0
  0
VERTEX
  5
2E8
330
29B
100
AcDbEntity
  8
Capa 1
 62
   250
370
    25
100
AcDbVertex
100
AcDb2dVertex
 10
137.0130208922053
 20
-178.1973434436049
 30
0.0
  0
VERTEX
  5
2E9
330
29B
100
AcDbEntity
  8
Capa 1
 62
   250
370
    25
100
AcDbVertex
100
AcDb2dVertex
 10
137.0130208922053
 20
-182.4167672028582
 30
0.0
  0
VERTEX
  5
2EA
330
29B
100
AcDbEntity
  8
Capa 1
 62
   250
370
    25
100
AcDbVertex
100
AcDb2dVertex
 10
144.4063680583257
 20
-182.4167672028582
 30
0.0
  0
VERTEX
  5
2EB
330
29B
100
AcDbEntity
  8
Capa 1
 62
   250
370
    25
100
AcDbVertex
100
AcDb2dVertex
 10
144.4063680583257
 20
-182.9395389108981
 30
0.0
  0
VERTEX
  5
2EC
330
29B
100
AcDbEntity
  8
Capa 1
 62
   250
370
    25
100
AcDbVertex
100
AcDb2dVertex
 10
147.7594794941194
 20
-182.9395389108981
 30
0.0
  0
VERTEX
  5
2ED
330
29B
100
AcDbEntity
  8
Capa 1
 62
   250
370
    25
100
AcDbVertex
100
AcDb2dVertex
 10
147.7594794941194
 20
-180.137092161269
 30
0.0
  0
VERTEX
  5
2EE
330
29B
100
AcDbEntity
  8
Capa 1
 62
   250
370
    25
100
AcDbVertex
100
AcDb2dVertex
 10
163.8023848313636
 20
-180.137092161269
 30
0.0
  0
SEQEND
  5
2EF
330
29B
100
AcDbEntity
  8
Capa 1
 62
   250
370
    25
  0
POLYLINE
  5
2F0
330
290
100
AcDbEntity
  8
Capa 1
 62
   250
370
    25
100
AcDb2dPolyline
 66
     1
 10
0.0
 20
0.0
 30
0.0
  0
VERTEX
  5
2F1
330
2F0
100
AcDbEntity
  8
Capa 1
 62
   250
370
    25
100
AcDbVertex
100
AcDb2dVertex
 10
164.743111217304
 20
-181.4085815409466
 30
0.0
  0
VERTEX
  5
2F2
330
2F0
100
AcDbEntity
  8
Capa 1
 62
   250
370
    25
100
AcDbVertex
100
AcDb2dVertex
 10
164.743111217304
 20
-179.6909430593882
 30
0.0
  0
VERTEX
  5
2F3
330
2F0
100
AcDbEntity
  8
Capa 1
 62
   250
370
    25
100
AcDbVertex
100
AcDb2dVertex
 10
166.1473321370918
 20
-179.6909430593882
 30
0.0
  0
VERTEX
  5
2F4
330
2F0
100
AcDbEntity
  8
Capa 1
 62
   250
370
    25
100
AcDbVertex
100
AcDb2dVertex
 10
166.1473321370918
 20
-181.4085815409466
 30
0.0
  0
VERTEX
  5
2F5
330
2F0
100
AcDbEntity
  8
Capa 1
 62
   250
370
    25
100
AcDbVertex
100
AcDb2dVertex
 10
164.743111217304
 20
-181.4085815409466
 30
0.0
  0
SEQEND
  5
2F6
330
2F0
100
AcDbEntity
  8
Capa 1
 62
   250
370
    25
  0
ENDBLK
  5
293
330
290
100
AcDbEntity
  8
0
100
AcDbBlockEnd
  0
BLOCK
  5
315
330
313
100
AcDbEntity
  8
0
100
AcDbBlockBegin
  2
block 15
 70
     0
 10
0.0
 20
0.0
 30
0.0
  3
block 15
  1

  0
SPLINE
  5
317
330
313
100
AcDbEntity
  8
Capa 1
 62
   250
370
    25
100
AcDbSpline
210
0.0
220
0.0
230
1.0
 70
    11
 71
     3
 72
   251
 73
   247
 74
     0
 42
0.0000000001
 43
0.0000000001
 12
1.0
 22
0.0
 32
0.0
 13
1.0
 23
0.0
 33
0.0
 40
0.0
 40
0.0
 40
0.0
 40
0.0
 40
1.0
 40
1.0
 40
1.0
 40
2.0
 40
2.0
 40
2.0
 40
3.0
 40
3.0
 40
3.0
 40
4.0
 40
4.0
 40
4.0
 40
5.0
 40
5.0
 40
5.0
 40
6.0
 40
6.0
 40
6.0
 40
7.0
 40
7.0
 40
7.0
 40
8.0
 40
8.0
 40
8.0
 40
9.0
 40
9.0
 40
9.0
 40
10.0
 40
10.0
 40
10.0
 40
11.0
 40
11.0
 40
11.0
 40
12.0
 40
12.0
 40
12.0
 40
13.0
 40
13.0
 40
13.0
 40
14.0
 40
14.0
 40
14.0
 40
15.0
 40
15.0
 40
15.0
 40
16.0
 40
16.0
 40
16.0
 40
17.0
 40
17.0
 40
17.0
 40
18.0
 40
18.0
 40
18.0
 40
19.0
 40
19.0
 40
19.0
 40
20.0
 40
20.0
 40
20.0
 40
21.0
 40
21.0
 40
21.0
 40
22.0
 40
22.0
 40
22.0
 40
23.0
 40
23.0
 40
23.0
 40
24.0
 40
24.0
 40
24.0
 40
25.0
 40
25.0
 40
25.0
 40
26.0
 40
26.0
 40
26.0
 40
27.0
 40
27.0
 40
27.0
 40
28.0
 40
28.0
 40
28.0
 40
29.0
 40
29.0
 40
29.0
 40
30.0
 40
30.0
 40
30.0
 40
31.0
 40
31.0
 40
31.0
 40
32.0
 40
32.0
 40
32.0
 40
33.0
 40
33.0
 40
33.0
 40
34.0
 40
34.0
 40
34.0
 40
35.0
 40
35.0
 40
35.0
 40
36.0
 40
36.0
 40
36.0
 40
37.0
 40
37.0
 40
37.0
 40
38.0
 40
38.0
 40
38.0
 40
39.0
 40
39.0
 40
39.0
 40
40.0
 40
40.0
 40
40.0
 40
41.0
 40
41.0
 40
41.0
 40
42.0
 40
42.0
 40
42.0
 40
43.0
 40
43.0
 40
43.0
 40
44.0
 40
44.0
 40
44.0
 40
45.0
 40
45.0
 40
45.0
 40
46.0
 40
46.0
 40
46.0
 40
47.0
 40
47.0
 40
47.0
 40
48.0
 40
48.0
 40
48.0
 40
49.0
 40
49.0
 40
49.0
 40
50.0
 40
50.0
 40
50.0
 40
51.0
 40
51.0
 40
51.0
 40
52.0
 40
52.0
 40
52.0
 40
53.0
 40
53.0
 40
53.0
 40
54.0
 40
54.0
 40
54.0
 40
55.0
 40
55.0
 40
55.0
 40
56.0
 40
56.0
 40
56.0
 40
57.0
 40
57.0
 40
57.0
 40
58.0
 40
58.0
 40
58.0
 40
59.0
 40
59.0
 40
59.0
 40
60.0
 40
60.0
 40
60.0
 40
61.0
 40
61.0
 40
61.0
 40
62.0
 40
62.0
 40
62.0
 40
63.0
 40
63.0
 40
63.0
 40
64.0
 40
64.0
 40
64.0
 40
65.0
 40
65.0
 40
65.0
 40
66.0
 40
66.0
 40
66.0
 40
67.0
 40
67.0
 40
67.0
 40
68.0
 40
68.0
 40
68.0
 40
69.0
 40
69.0
 40
69.0
 40
70.0
 40
70.0
 40
70.0
 40
71.0
 40
71.0
 40
71.0
 40
72.0
 40
72.0
 40
72.0
 40
73.0
 40
73.0
 40
73.0
 40
74.0
 40
74.0
 40
74.0
 40
75.0
 40
75.0
 40
75.0
 40
76.0
 40
76.0
 40
76.0
 40
77.0
 40
77.0
 40
77.0
 40
78.0
 40
78.0
 40
78.0
 40
79.0
 40
79.0
 40
79.0
 40
80.0
 40
80.0
 40
80.0
 40
81.0
 40
81.0
 40
81.0
 40
82.0
 40
82.0
 40
82.0
 40
82.0
 10
103.1884846804742
 20
-177.888124591957
 30
0.0
 10
103.1884846804742
 20
-177.888124591957
 30
0.0
 10
110.9345665605906
 20
-177.888124591957
 30
0.0
 10
110.9345665605906
 20
-177.888124591957
 30
0.0
 10
110.9345665605906
 20
-177.888124591957
 30
0.0
 10
112.4132015428598
 20
-177.888124591957
 30
0.0
 10
112.4132015428598
 20
-177.888124591957
 30
0.0
 10
112.0251976638336
 20
-177.888124591957
 30
0.0
 10
111.7076459874807
 20
-178.2056332046163
 30
0.0
 10
111.7076459874807
 20
-178.5936801473361
 30
0.0
 10
111.7076459874807
 20
-178.5936801473361
 30
0.0
 10
111.7076459874807
 20
-181.711211647479
 30
0.0
 10
111.7076459874807
 20
-181.711211647479
 30
0.0
 10
111.7076459874807
 20
-182.0992585901989
 30
0.0
 10
112.0251976638336
 20
-182.4167672028582
 30
0.0
 10
112.4132015428598
 20
-182.4167672028582
 30
0.0
 10
112.4132015428598
 20
-182.4167672028582
 30
0.0
 10
120.8210432019992
 20
-182.4167672028582
 30
0.0
 10
120.8210432019992
 20
-182.4167672028582
 30
0.0
 10
121.2091332084126
 20
-182.4167672028582
 30
0.0
 10
121.5265987573784
 20
-182.0992585901989
 30
0.0
 10
121.5265987573784
 20
-181.711211647479
 30
0.0
 10
121.5265987573784
 20
-181.711211647479
 30
0.0
 10
121.5265987573784
 20
-178.5936801473361
 30
0.0
 10
121.5265987573784
 20
-178.5936801473361
 30
0.0
 10
121.5265987573784
 20
-178.2056332046163
 30
0.0
 10
121.2091332084126
 20
-177.888124591957
 30
0.0
 10
120.8210432019992
 20
-177.888124591957
 30
0.0
 10
120.8210432019992
 20
-177.888124591957
 30
0.0
 10
121.2142147242533
 20
-177.888124591957
 30
0.0
 10
121.2142147242533
 20
-177.888124591957
 30
0.0
 10
121.2142147242533
 20
-177.888124591957
 30
0.0
 10
121.2179182019
 20
-177.888124591957
 30
0.0
 10
121.2179182019
 20
-177.888124591957
 30
0.0
 10
121.2179182019
 20
-177.888124591957
 30
0.0
 10
121.2179182019
 20
-176.785694036677
 30
0.0
 10
121.2179182019
 20
-176.785694036677
 30
0.0
 10
121.2179182019
 20
-176.785694036677
 30
0.0
 10
129.0231265332814
 20
-172.9933544583608
 30
0.0
 10
129.0231265332814
 20
-172.9933544583608
 30
0.0
 10
129.0231265332814
 20
-172.9933544583608
 30
0.0
 10
129.0231265332814
 20
-170.3181301548304
 30
0.0
 10
129.0231265332814
 20
-170.3181301548304
 30
0.0
 10
129.0231265332814
 20
-170.3181301548304
 30
0.0
 10
129.0231265332814
 20
-169.7519717755231
 30
0.0
 10
129.0231265332814
 20
-169.7519717755231
 30
0.0
 10
129.0231265332814
 20
-169.7519717755231
 30
0.0
 10
129.0231265332814
 20
-168.7600211260858
 30
0.0
 10
129.0231265332814
 20
-168.7600211260858
 30
0.0
 10
129.0231265332814
 20
-168.7600211260858
 30
0.0
 10
130.7184580215728
 20
-166.3787711266811
 30
0.0
 10
130.7184580215728
 20
-166.3787711266811
 30
0.0
 10
130.7184580215728
 20
-166.3787711266811
 30
0.0
 10
130.7184580215728
 20
-160.9989315487617
 30
0.0
 10
130.7184580215728
 20
-160.9989315487617
 30
0.0
 10
130.7184580215728
 20
-160.9989315487617
 30
0.0
 10
127.6989610198327
 20
-160.9989315487617
 30
0.0
 10
127.6989610198327
 20
-160.9989315487617
 30
0.0
 10
127.6989610198327
 20
-160.9989315487617
 30
0.0
 10
127.6989610198327
 20
-160.381570437805
 30
0.0
 10
127.6989610198327
 20
-160.381570437805
 30
0.0
 10
127.6989610198327
 20
-160.381570437805
 30
0.0
 10
129.0218776861692
 20
-160.381570437805
 30
0.0
 10
129.0218776861692
 20
-160.381570437805
 30
0.0
 10
129.0218776861692
 20
-160.381570437805
 30
0.0
 10
129.0218776861692
 20
-153.8027730354783
 30
0.0
 10
129.0218776861692
 20
-153.8027730354783
 30
0.0
 10
129.0218776861692
 20
-153.8027730354783
 30
0.0
 10
129.0218776861692
 20
-143.6372005960709
 30
0.0
 10
129.0218776861692
 20
-143.6372005960709
 30
0.0
 10
129.0218776861692
 20
-143.6372005960709
 30
0.0
 10
139.7345312886349
 20
-143.6372005960709
 30
0.0
 10
139.7345312886349
 20
-143.6372005960709
 30
0.0
 10
139.1342664640231
 20
-142.0284917273867
 30
0.0
 10
138.7504397632733
 20
-139.568069127362
 30
0.0
 10
138.7504397632733
 20
-136.8105716372741
 30
0.0
 10
138.7504397632733
 20
-134.0530741471869
 30
0.0
 10
139.1342664640231
 20
-131.5926730790086
 30
0.0
 10
139.7345312886349
 20
-129.9839426784773
 30
0.0
 10
139.7345312886349
 20
-129.9839426784773
 30
0.0
 10
129.0218776861692
 20
-129.9839426784773
 30
0.0
 10
129.0218776861692
 20
-129.9839426784773
 30
0.0
 10
129.0218776861692
 20
-129.9839426784773
 30
0.0
 10
129.0218776861692
 20
-112.991848939507
 30
0.0
 10
129.0218776861692
 20
-112.991848939507
 30
0.0
 10
129.0218776861692
 20
-112.991848939507
 30
0.0
 10
103.1872358333608
 20
-112.991848939507
 30
0.0
 10
103.1872358333608
 20
-112.991848939507
 30
0.0
 10
103.1872358333608
 20
-112.991848939507
 30
0.0
 10
103.1872358333608
 20
-112.0511225535659
 30
0.0
 10
103.1872358333608
 20
-112.0511225535659
 30
0.0
 10
103.1872358333608
 20
-112.0511225535659
 30
0.0
 10
129.0891862392129
 20
-112.0511225535659
 30
0.0
 10
129.0891862392129
 20
-112.0511225535659
 30
0.0
 10
129.0891862392129
 20
-112.0511225535659
 30
0.0
 10
129.0891862392129
 20
-107.3180135256154
 30
0.0
 10
129.0891862392129
 20
-107.3180135256154
 30
0.0
 10
129.0891862392129
 20
-107.3180135256154
 30
0.0
 10
128.8452734788573
 20
-107.1709510120885
 30
0.0
 10
128.8452734788573
 20
-107.1709510120885
 30
0.0
 10
128.8452734788573
 20
-107.1709510120885
 30
0.0
 10
128.8452734788573
 20
-102.1923143352736
 30
0.0
 10
128.8452734788573
 20
-102.1923143352736
 30
0.0
 10
128.8452734788573
 20
-102.1923143352736
 30
0.0
 10
129.0141262213274
 20
-100.7582287439977
 30
0.0
 10
127.4111663557336
 20
-100.7582287439977
 30
0.0
 10
127.4111663557336
 20
-100.7582287439977
 30
0.0
 10
121.3000837292232
 20
-100.7582287439977
 30
0.0
 10
121.3000837292232
 20
-100.7582287439977
 30
0.0
 10
121.3000837292232
 20
-100.7582287439977
 30
0.0
 10
119.5169023060579
 20
-101.5465311865635
 30
0.0
 10
119.5169023060579
 20
-101.5465311865635
 30
0.0
 10
119.5169023060579
 20
-101.5465311865635
 30
0.0
 10
119.0938445804692
 20
-101.2914218658808
 30
0.0
 10
119.0938445804692
 20
-101.2914218658808
 30
0.0
 10
119.0938445804692
 20
-101.2914218658808
 30
0.0
 10
103.1872358333608
 20
-101.2914218658808
 30
0.0
 10
103.1872358333608
 20
-101.2914218658808
 30
0.0
 10
103.1872358333608
 20
-101.2914218658808
 30
0.0
 10
103.1872358333608
 20
-95.0597178336927
 30
0.0
 10
103.1872358333608
 20
-95.0597178336927
 30
0.0
 10
101.5785484965234
 20
-95.6600041901507
 30
0.0
 10
99.11810436465149
 20
-96.0438524227482
 30
0.0
 10
96.36060687456394
 20
-96.0438524227482
 30
0.0
 10
93.60310938447641
 20
-96.0438524227482
 30
0.0
 10
91.14270831629811
 20
-95.6600041901507
 30
0.0
 10
89.53397791576712
 20
-95.0597178336927
 30
0.0
 10
89.53397791576712
 20
-95.0597178336927
 30
0.0
 10
89.53397791576712
 20
-101.2914218658808
 30
0.0
 10
89.53397791576712
 20
-101.2914218658808
 30
0.0
 10
89.53397791576712
 20
-101.2914218658808
 30
0.0
 10
73.62736916865872
 20
-101.2914218658808
 30
0.0
 10
73.62736916865872
 20
-101.2914218658808
 30
0.0
 10
73.62736916865872
 20
-101.2914218658808
 30
0.0
 10
73.20431144307003
 20
-101.5465311865635
 30
0.0
 10
73.20431144307003
 20
-101.5465311865635
 30
0.0
 10
73.20431144307003
 20
-101.5465311865635
 30
0.0
 10
71.42113001990472
 20
-100.7582287439977
 30
0.0
 10
71.42113001990472
 20
-100.7582287439977
 30
0.0
 10
71.42113001990472
 20
-100.7582287439977
 30
0.0
 10
65.3100473933943
 20
-100.7582287439977
 30
0.0
 10
65.3100473933943
 20
-100.7582287439977
 30
0.0
 10
63.70708752780111
 20
-100.7582287439977
 30
0.0
 10
63.87594027027192
 20
-102.1923143352736
 30
0.0
 10
63.87594027027192
 20
-102.1923143352736
 30
0.0
 10
63.87594027027192
 20
-102.1923143352736
 30
0.0
 10
63.87594027027192
 20
-107.1709510120885
 30
0.0
 10
63.87594027027192
 20
-107.1709510120885
 30
0.0
 10
63.87594027027192
 20
-107.1709510120885
 30
0.0
 10
63.63202750991623
 20
-107.3180135256154
 30
0.0
 10
63.63202750991623
 20
-107.3180135256154
 30
0.0
 10
63.63202750991623
 20
-107.3180135256154
 30
0.0
 10
63.63202750991623
 20
-112.0511225535659
 30
0.0
 10
63.63202750991623
 20
-112.0511225535659
 30
0.0
 10
63.63202750991623
 20
-112.0511225535659
 30
0.0
 10
89.53397791576712
 20
-112.0511225535659
 30
0.0
 10
89.53397791576712
 20
-112.0511225535659
 30
0.0
 10
89.53397791576712
 20
-112.0511225535659
 30
0.0
 10
89.53397791576712
 20
-112.991848939507
 30
0.0
 10
89.53397791576712
 20
-112.991848939507
 30
0.0
 10
89.53397791576712
 20
-112.991848939507
 30
0.0
 10
63.69085251532687
 20
-112.991848939507
 30
0.0
 10
63.69085251532687
 20
-112.991848939507
 30
0.0
 10
63.69085251532687
 20
-112.991848939507
 30
0.0
 10
63.69085251532687
 20
-129.9839426784773
 30
0.0
 10
63.69085251532687
 20
-129.9839426784773
 30
0.0
 10
63.69085251532687
 20
-129.9839426784773
 30
0.0
 10
52.97815584916824
 20
-129.9839426784773
 30
0.0
 10
52.97815584916824
 20
-129.9839426784773
 30
0.0
 10
53.57846373747302
 20
-131.5926730790086
 30
0.0
 10
53.96229043822342
 20
-134.0530741471869
 30
0.0
 10
53.96229043822342
 20
-136.8105716372741
 30
0.0
 10
53.96229043822342
 20
-139.568069127362
 30
0.0
 10
53.57846373747302
 20
-142.0284917273867
 30
0.0
 10
52.97815584916824
 20
-143.6372005960709
 30
0.0
 10
52.97815584916824
 20
-143.6372005960709
 30
0.0
 10
63.69085251532687
 20
-143.6372005960709
 30
0.0
 10
63.69085251532687
 20
-143.6372005960709
 30
0.0
 10
63.69085251532687
 20
-143.6372005960709
 30
0.0
 10
63.69085251532687
 20
-160.381570437805
 30
0.0
 10
63.69085251532687
 20
-160.381570437805
 30
0.0
 10
63.69085251532687
 20
-160.381570437805
 30
0.0
 10
65.01376918166281
 20
-160.381570437805
 30
0.0
 10
65.01376918166281
 20
-160.381570437805
 30
0.0
 10
65.01376918166281
 20
-160.381570437805
 30
0.0
 10
65.01376918166281
 20
-161.6162926597185
 30
0.0
 10
65.01376918166281
 20
-161.6162926597185
 30
0.0
 10
65.01376918166281
 20
-161.6162926597185
 30
0.0
 10
63.69085251532687
 20
-161.6162926597185
 30
0.0
 10
63.69085251532687
 20
-161.6162926597185
 30
0.0
 10
63.69085251532687
 20
-161.6162926597185
 30
0.0
 10
63.69085251532687
 20
-169.7519717755231
 30
0.0
 10
63.69085251532687
 20
-169.7519717755231
 30
0.0
 10
63.69085251532687
 20
-169.7519717755231
 30
0.0
 10
63.69085251532687
 20
-170.3181301548304
 30
0.0
 10
63.69085251532687
 20
-170.3181301548304
 30
0.0
 10
63.69085251532687
 20
-170.3181301548304
 30
0.0
 10
63.69085251532687
 20
-172.9933544583608
 30
0.0
 10
63.69085251532687
 20
-172.9933544583608
 30
0.0
 10
63.69085251532687
 20
-172.9933544583608
 30
0.0
 10
71.4960608467089
 20
-176.785694036677
 30
0.0
 10
71.4960608467089
 20
-176.785694036677
 30
0.0
 10
71.4960608467089
 20
-176.785694036677
 30
0.0
 10
71.4960608467089
 20
-177.888124591957
 30
0.0
 10
71.4960608467089
 20
-177.888124591957
 30
0.0
 10
71.4960608467089
 20
-177.888124591957
 30
0.0
 10
71.89293584660969
 20
-177.888124591957
 30
0.0
 10
71.89293584660969
 20
-177.888124591957
 30
0.0
 10
71.50484584019628
 20
-177.888124591957
 30
0.0
 10
71.18738029123051
 20
-178.2056332046163
 30
0.0
 10
71.18738029123051
 20
-178.5936801473361
 30
0.0
 10
71.18738029123051
 20
-178.5936801473361
 30
0.0
 10
71.18738029123051
 20
-181.711211647479
 30
0.0
 10
71.18738029123051
 20
-181.711211647479
 30
0.0
 10
71.18738029123051
 20
-182.0992585901989
 30
0.0
 10
71.50484584019628
 20
-182.4167672028582
 30
0.0
 10
71.89293584660969
 20
-182.4167672028582
 30
0.0
 10
71.89293584660969
 20
-182.4167672028582
 30
0.0
 10
80.30077750574904
 20
-182.4167672028582
 30
0.0
 10
80.30077750574904
 20
-182.4167672028582
 30
0.0
 10
80.68882444846886
 20
-182.4167672028582
 30
0.0
 10
81.0063330611282
 20
-182.0992585901989
 30
0.0
 10
81.0063330611282
 20
-181.711211647479
 30
0.0
 10
81.0063330611282
 20
-181.711211647479
 30
0.0
 10
81.0063330611282
 20
-178.5936801473361
 30
0.0
 10
81.0063330611282
 20
-178.5936801473361
 30
0.0
 10
81.0063330611282
 20
-178.2056332046163
 30
0.0
 10
80.68882444846886
 20
-177.888124591957
 30
0.0
 10
80.30077750574904
 20
-177.888124591957
 30
0.0
 10
80.30077750574904
 20
-177.888124591957
 30
0.0
 10
81.77570901037163
 20
-177.888124591957
 30
0.0
 10
81.77570901037163
 20
-177.888124591957
 30
0.0
 10
81.77570901037163
 20
-177.888124591957
 30
0.0
 10
89.5254943681347
 20
-177.888124591957
 30
0.0
 10
89.5254943681347
 20
-177.888124591957
 30
0.0
 10
89.5254943681347
 20
-177.888124591957
 30
0.0
 10
89.5254943681347
 20
-183.321729191293
 30
0.0
 10
89.5254943681347
 20
-183.321729191293
 30
0.0
 10
91.13422476866567
 20
-182.721442834835
 30
0.0
 10
93.59462583684399
 20
-182.3376161340846
 30
0.0
 10
96.35212332693152
 20
-182.3376161340846
 30
0.0
 10
99.10962081701905
 20
-182.3376161340846
 30
0.0
 10
101.5700218851973
 20
-182.721442834835
 30
0.0
 10
103.1787522857283
 20
-183.321729191293
 30
0.0
 10
103.1787522857283
 20
-183.321729191293
 30
0.0
 10
103.1884846804742
 20
-177.888124591957
 30
0.0
 10
103.1884846804742
 20
-177.888124591957
 30
0.0
  0
SPLINE
  5
318
330
313
100
AcDbEntity
  8
Capa 1
 62
   250
370
    25
100
AcDbSpline
210
0.0
220
0.0
230
1.0
 70
    11
 71
     3
 72
   140
 73
   136
 74
     0
 42
0.0000000001
 43
0.0000000001
 12
1.0
 22
0.0
 32
0.0
 13
1.0
 23
0.0
 33
0.0
 40
0.0
 40
0.0
 40
0.0
 40
0.0
 40
1.0
 40
1.0
 40
1.0
 40
2.0
 40
2.0
 40
2.0
 40
3.0
 40
3.0
 40
3.0
 40
4.0
 40
4.0
 40
4.0
 40
5.0
 40
5.0
 40
5.0
 40
6.0
 40
6.0
 40
6.0
 40
7.0
 40
7.0
 40
7.0
 40
8.0
 40
8.0
 40
8.0
 40
9.0
 40
9.0
 40
9.0
 40
10.0
 40
10.0
 40
10.0
 40
11.0
 40
11.0
 40
11.0
 40
12.0
 40
12.0
 40
12.0
 40
13.0
 40
13.0
 40
13.0
 40
14.0
 40
14.0
 40
14.0
 40
15.0
 40
15.0
 40
15.0
 40
16.0
 40
16.0
 40
16.0
 40
17.0
 40
17.0
 40
17.0
 40
18.0
 40
18.0
 40
18.0
 40
19.0
 40
19.0
 40
19.0
 40
20.0
 40
20.0
 40
20.0
 40
21.0
 40
21.0
 40
21.0
 40
22.0
 40
22.0
 40
22.0
 40
23.0
 40
23.0
 40
23.0
 40
24.0
 40
24.0
 40
24.0
 40
25.0
 40
25.0
 40
25.0
 40
26.0
 40
26.0
 40
26.0
 40
27.0
 40
27.0
 40
27.0
 40
28.0
 40
28.0
 40
28.0
 40
29.0
 40
29.0
 40
29.0
 40
30.0
 40
30.0
 40
30.0
 40
31.0
 40
31.0
 40
31.0
 40
32.0
 40
32.0
 40
32.0
 40
33.0
 40
33.0
 40
33.0
 40
34.0
 40
34.0
 40
34.0
 40
35.0
 40
35.0
 40
35.0
 40
36.0
 40
36.0
 40
36.0
 40
37.0
 40
37.0
 40
37.0
 40
38.0
 40
38.0
 40
38.0
 40
39.0
 40
39.0
 40
39.0
 40
40.0
 40
40.0
 40
40.0
 40
41.0
 40
41.0
 40
41.0
 40
42.0
 40
42.0
 40
42.0
 40
43.0
 40
43.0
 40
43.0
 40
44.0
 40
44.0
 40
44.0
 40
45.0
 40
45.0
 40
45.0
 40
45.0
 10
103.1787522857283
 20
-161.6158404909361
 30
0.0
 10
103.1787522857283
 20
-161.6158404909361
 30
0.0
 10
103.1787522857283
 20
-151.0286529596744
 30
0.0
 10
103.1787522857283
 20
-151.0286529596744
 30
0.0
 10
103.1787522857283
 20
-151.0286529596744
 30
0.0
 10
103.1787522857283
 20
-149.8170774730524
 30
0.0
 10
101.9671552672595
 20
-149.8170774730524
 30
0.0
 10
101.9671552672595
 20
-149.8170774730524
 30
0.0
 10
98.15386520202362
 20
-149.8170774730524
 30
0.0
 10
98.15386520202362
 20
-149.8170774730524
 30
0.0
 10
98.15386520202362
 20
-149.8170774730524
 30
0.0
 10
96.35212332693152
 20
-151.676567761216
 30
0.0
 10
96.35212332693152
 20
-151.676567761216
 30
0.0
 10
96.35212332693152
 20
-151.676567761216
 30
0.0
 10
94.55038145183941
 20
-149.8170774730524
 30
0.0
 10
94.55038145183941
 20
-149.8170774730524
 30
0.0
 10
94.55038145183941
 20
-149.8170774730524
 30
0.0
 10
90.73709138660351
 20
-149.8170774730524
 30
0.0
 10
90.73709138660351
 20
-149.8170774730524
 30
0.0
 10
89.5254943681347
 20
-149.8170774730524
 30
0.0
 10
89.5254943681347
 20
-151.0286529596744
 30
0.0
 10
89.5254943681347
 20
-151.0286529596744
 30
0.0
 10
89.5254943681347
 20
-151.0286529596744
 30
0.0
 10
89.5254943681347
 20
-161.6158404909361
 30
0.0
 10
89.5254943681347
 20
-161.6158404909361
 30
0.0
 10
89.5254943681347
 20
-161.6158404909361
 30
0.0
 10
78.53688861730113
 20
-161.6162926597185
 30
0.0
 10
78.53688861730113
 20
-161.6162926597185
 30
0.0
 10
78.53688861730113
 20
-161.6162926597185
 30
0.0
 10
78.53688861730113
 20
-160.381570437805
 30
0.0
 10
78.53688861730113
 20
-160.381570437805
 30
0.0
 10
78.53688861730113
 20
-160.381570437805
 30
0.0
 10
80.0655636114936
 20
-160.381570437805
 30
0.0
 10
80.0655636114936
 20
-160.381570437805
 30
0.0
 10
80.0655636114936
 20
-160.381570437805
 30
0.0
 10
80.0655636114936
 20
-143.6372005960709
 30
0.0
 10
80.0655636114936
 20
-143.6372005960709
 30
0.0
 10
80.0655636114936
 20
-143.6372005960709
 30
0.0
 10
85.27127514448037
 20
-143.6372005960709
 30
0.0
 10
85.27127514448037
 20
-143.6372005960709
 30
0.0
 10
85.27127514448037
 20
-143.6372005960709
 30
0.0
 10
86.48282909925561
 20
-143.6372005960709
 30
0.0
 10
86.48282909925561
 20
-142.4256251094489
 30
0.0
 10
86.48282909925561
 20
-142.4256251094489
 30
0.0
 10
86.48282909925561
 20
-138.612335044213
 30
0.0
 10
86.48282909925561
 20
-138.612335044213
 30
0.0
 10
86.48282909925561
 20
-138.612335044213
 30
0.0
 10
84.62333881109201
 20
-136.8105716372741
 30
0.0
 10
84.62333881109201
 20
-136.8105716372741
 30
0.0
 10
84.62333881109201
 20
-136.8105716372741
 30
0.0
 10
86.48282909925561
 20
-135.0088082303352
 30
0.0
 10
86.48282909925561
 20
-135.0088082303352
 30
0.0
 10
86.48282909925561
 20
-135.0088082303352
 30
0.0
 10
86.48282909925561
 20
-131.1955181650993
 30
0.0
 10
86.48282909925561
 20
-131.1955181650993
 30
0.0
 10
86.48282909925561
 20
-129.9839426784773
 30
0.0
 10
85.27127514448037
 20
-129.9839426784773
 30
0.0
 10
85.27127514448037
 20
-129.9839426784773
 30
0.0
 10
85.27127514448037
 20
-129.9839426784773
 30
0.0
 10
79.85980528363706
 20
-129.9839426784773
 30
0.0
 10
79.85980528363706
 20
-129.9839426784773
 30
0.0
 10
79.85980528363706
 20
-129.9839426784773
 30
0.0
 10
79.85980528363706
 20
-116.9017954649509
 30
0.0
 10
79.85980528363706
 20
-116.9017954649509
 30
0.0
 10
79.85980528363706
 20
-116.9017954649509
 30
0.0
 10
89.53397791576712
 20
-116.9017954649509
 30
0.0
 10
89.53397791576712
 20
-116.9017954649509
 30
0.0
 10
89.53397791576712
 20
-116.9017954649509
 30
0.0
 10
89.53397791576712
 20
-127.3528155971581
 30
0.0
 10
89.53397791576712
 20
-127.3528155971581
 30
0.0
 10
89.53397791576712
 20
-127.3528155971581
 30
0.0
 10
89.53397791576712
 20
-128.5643910837801
 30
0.0
 10
90.74553187054237
 20
-128.5643910837801
 30
0.0
 10
90.74553187054237
 20
-128.5643910837801
 30
0.0
 10
94.55882193577828
 20
-128.5643910837801
 30
0.0
 10
94.55882193577828
 20
-128.5643910837801
 30
0.0
 10
94.55882193577828
 20
-128.5643910837801
 30
0.0
 10
96.36060687456394
 20
-126.7048792637697
 30
0.0
 10
96.36060687456394
 20
-126.7048792637697
 30
0.0
 10
96.36060687456394
 20
-126.7048792637697
 30
0.0
 10
98.16239181334961
 20
-128.5643910837801
 30
0.0
 10
98.16239181334961
 20
-128.5643910837801
 30
0.0
 10
98.16239181334961
 20
-128.5643910837801
 30
0.0
 10
101.9756818785855
 20
-128.5643910837801
 30
0.0
 10
101.9756818785855
 20
-128.5643910837801
 30
0.0
 10
103.1872358333608
 20
-128.5643910837801
 30
0.0
 10
103.1872358333608
 20
-127.3528155971581
 30
0.0
 10
103.1872358333608
 20
-127.3528155971581
 30
0.0
 10
103.1872358333608
 20
-127.3528155971581
 30
0.0
 10
103.1872358333608
 20
-116.9017954649509
 30
0.0
 10
103.1872358333608
 20
-116.9017954649509
 30
0.0
 10
103.1872358333608
 20
-116.9017954649509
 30
0.0
 10
112.852967981552
 20
-116.9017954649509
 30
0.0
 10
112.852967981552
 20
-116.9017954649509
 30
0.0
 10
112.852967981552
 20
-116.9017954649509
 30
0.0
 10
112.852967981552
 20
-129.9839426784773
 30
0.0
 10
112.852967981552
 20
-129.9839426784773
 30
0.0
 10
112.852967981552
 20
-129.9839426784773
 30
0.0
 10
107.4414550570151
 20
-129.9839426784773
 30
0.0
 10
107.4414550570151
 20
-129.9839426784773
 30
0.0
 10
107.4414550570151
 20
-129.9839426784773
 30
0.0
 10
106.2299011022399
 20
-129.9839426784773
 30
0.0
 10
106.2299011022399
 20
-131.1955181650993
 30
0.0
 10
106.2299011022399
 20
-131.1955181650993
 30
0.0
 10
106.2299011022399
 20
-135.0088082303352
 30
0.0
 10
106.2299011022399
 20
-135.0088082303352
 30
0.0
 10
106.2299011022399
 20
-135.0088082303352
 30
0.0
 10
108.0893913904034
 20
-136.8105716372741
 30
0.0
 10
108.0893913904034
 20
-136.8105716372741
 30
0.0
 10
108.0893913904034
 20
-136.8105716372741
 30
0.0
 10
106.2299011022399
 20
-138.612335044213
 30
0.0
 10
106.2299011022399
 20
-138.612335044213
 30
0.0
 10
106.2299011022399
 20
-138.612335044213
 30
0.0
 10
106.2299011022399
 20
-142.4256251094489
 30
0.0
 10
106.2299011022399
 20
-142.4256251094489
 30
0.0
 10
106.2299011022399
 20
-143.6372005960709
 30
0.0
 10
107.4414550570151
 20
-143.6372005960709
 30
0.0
 10
107.4414550570151
 20
-143.6372005960709
 30
0.0
 10
107.4414550570151
 20
-143.6372005960709
 30
0.0
 10
112.6471235263083
 20
-143.6372005960709
 30
0.0
 10
112.6471235263083
 20
-143.6372005960709
 30
0.0
 10
112.6471235263083
 20
-143.6372005960709
 30
0.0
 10
112.6471235263083
 20
-160.381570437805
 30
0.0
 10
112.6471235263083
 20
-160.381570437805
 30
0.0
 10
112.6471235263083
 20
-160.381570437805
 30
0.0
 10
114.1758415841943
 20
-160.381570437805
 30
0.0
 10
114.1758415841943
 20
-160.381570437805
 30
0.0
 10
114.1758415841943
 20
-160.381570437805
 30
0.0
 10
114.1758415841943
 20
-161.6162926597185
 30
0.0
 10
114.1758415841943
 20
-161.6162926597185
 30
0.0
 10
114.1758415841943
 20
-161.6162926597185
 30
0.0
 10
103.1884846804742
 20
-161.6162926597185
 30
0.0
 10
103.1884846804742
 20
-161.6162926597185
 30
0.0
 10
103.1884846804742
 20
-161.6162926597185
 30
0.0
 10
103.1787522857283
 20
-161.6158404909361
 30
0.0
 10
103.1787522857283
 20
-161.6158404909361
 30
0.0
  0
ENDBLK
  5
316
330
313
100
AcDbEntity
  8
0
100
AcDbBlockEnd
  0
BLOCK
  5
327
330
325
100
AcDbEntity
  8
0
100
AcDbBlockBegin
  2
block 16
 70
     0
 10
0.0
 20
0.0
 30
0.0
  3
block 16
  1

  0
POLYLINE
  5
329
330
325
100
AcDbEntity
  8
Capa 1
 62
   250
370
     9
100
AcDb2dPolyline
 66
     1
 10
0.0
 20
0.0
 30
0.0
  0
VERTEX
  5
32A
330
329
100
AcDbEntity
  8
Capa 1
 62
   250
370
     9
100
AcDbVertex
100
AcDb2dVertex
 10
80.06984952765583
 20
-183.3218091102644
 30
0.0
  0
VERTEX
  5
32B
330
329
100
AcDbEntity
  8
Capa 1
 62
   250
370
     9
100
AcDbVertex
100
AcDb2dVertex
 10
80.06984952765583
 20
-191.4259991689409
 30
0.0
  0
SEQEND
  5
32C
330
329
100
AcDbEntity
  8
Capa 1
 62
   250
370
     9
  0
POLYLINE
  5
32D
330
325
100
AcDbEntity
  8
Capa 1
 62
   250
370
     9
100
AcDb2dPolyline
 66
     1
 10
0.0
 20
0.0
 30
0.0
  0
VERTEX
  5
32E
330
32D
100
AcDbEntity
  8
Capa 1
 62
   250
370
     9
100
AcDbVertex
100
AcDb2dVertex
 10
112.651382774747
 20
-183.3218091102644
 30
0.0
  0
VERTEX
  5
32F
330
32D
100
AcDbEntity
  8
Capa 1
 62
   250
370
     9
100
AcDbVertex
100
AcDb2dVertex
 10
112.651382774747
 20
-191.4259991689409
 30
0.0
  0
SEQEND
  5
330
330
32D
100
AcDbEntity
  8
Capa 1
 62
   250
370
     9
  0
POLYLINE
  5
331
330
325
100
AcDbEntity
  8
Capa 1
 62
   250
370
     9
100
AcDb2dPolyline
 66
     1
 10
0.0
 20
0.0
 30
0.0
  0
VERTEX
  5
332
330
331
100
AcDbEntity
  8
Capa 1
 62
   250
370
     9
100
AcDbVertex
100
AcDb2dVertex
 10
80.0698055056284
 20
-190.132455183649
 30
0.0
  0
VERTEX
  5
333
330
331
100
AcDbEntity
  8
Capa 1
 62
   250
370
     9
100
AcDbVertex
100
AcDb2dVertex
 10
112.6513695020943
 20
-190.132455183649
 30
0.0
  0
SEQEND
  5
334
330
331
100
AcDbEntity
  8
Capa 1
 62
   250
370
     9
  0
ENDBLK
  5
328
330
325
100
AcDbEntity
  8
0
100
AcDbBlockEnd
  0
ENDSEC
  0
SECTION
  2
ENTITIES
  0
POLYLINE
  5
41
330
1F
100
AcDbEntity
  8
Capa 1
 62
   250
370
     9
100
AcDb2dPolyline
 66
     1
 10
0.0
 20
0.0
 30
0.0
  0
VERTEX
  5
42
330
41
100
AcDbEntity
  8
Capa 1
 62
   250
370
     9
100
AcDbVertex
100
AcDb2dVertex
 10
148.2733735475552
 20
-100.9974368344266
 30
0.0
  0
VERTEX
  5
43
330
41
100
AcDbEntity
  8
Capa 1
 62
   250
370
     9
100
AcDbVertex
100
AcDb2dVertex
 10
163.3104960214299
 20
-100.9974368344266
 30
0.0
  0
SEQEND
  5
44
330
41
100
AcDbEntity
  8
Capa 1
 62
   250
370
     9
  0
POLYLINE
  5
45
330
1F
100
AcDbEntity
  8
Capa 1
 62
   250
370
     9
100
AcDb2dPolyline
 66
     1
 10
0.0
 20
0.0
 30
0.0
  0
VERTEX
  5
46
330
45
100
AcDbEntity
  8
Capa 1
 62
   250
370
     9
100
AcDbVertex
100
AcDb2dVertex
 10
148.2733735475552
 20
-98.20461838864311
 30
0.0
  0
VERTEX
  5
47
330
45
100
AcDbEntity
  8
Capa 1
 62
   250
370
     9
100
AcDbVertex
100
AcDb2dVertex
 10
155.7918735456763
 20
-98.20461838864311
 30
0.0
  0
SEQEND
  5
48
330
45
100
AcDbEntity
  8
Capa 1
 62
   250
370
     9
  0
POLYLINE
  5
49
330
1F
100
AcDbEntity
  8
Capa 1
 62
   250
370
     9
100
AcDb2dPolyline
 66
     1
 10
0.0
 20
0.0
 30
0.0
  0
VERTEX
  5
4A
330
49
100
AcDbEntity
  8
Capa 1
 62
   250
370
     9
100
AcDbVertex
100
AcDb2dVertex
 10
147.7736060362032
 20
-106.4195468564709
 30
0.0
  0
VERTEX
  5
4B
330
49
100
AcDbEntity
  8
Capa 1
 62
   250
370
     9
100
AcDbVertex
100
AcDb2dVertex
 10
149.6219802565688
 20
-106.4195468564709
 30
0.0
  0
SEQEND
  5
4C
330
49
100
AcDbEntity
  8
Capa 1
 62
   250
370
     9
  0
POLYLINE
  5
4D
330
1F
100
AcDbEntity
  8
Capa 1
 62
   250
370
     9
100
AcDb2dPolyline
 66
     1
 10
0.0
 20
0.0
 30
0.0
  0
VERTEX
  5
4E
330
4D
100
AcDbEntity
  8
Capa 1
 62
   250
370
     9
100
AcDbVertex
100
AcDb2dVertex
 10
153.9386825240946
 20
-106.4195468564709
 30
0.0
  0
VERTEX
  5
4F
330
4D
100
AcDbEntity
  8
Capa 1
 62
   250
370
     9
100
AcDbVertex
100
AcDb2dVertex
 10
157.6466086082739
 20
-106.4195468564709
 30
0.0
  0
SEQEND
  5
50
330
4D
100
AcDbEntity
  8
Capa 1
 62
   250
370
     9
  0
POLYLINE
  5
51
330
1F
100
AcDbEntity
  8
Capa 1
 62
   250
370
     9
100
AcDb2dPolyline
 66
     1
 10
0.0
 20
0.0
 30
0.0
  0
VERTEX
  5
52
330
51
100
AcDbEntity
  8
Capa 1
 62
   250
370
     9
100
AcDbVertex
100
AcDb2dVertex
 10
146.8328671913051
 20
-112.3983831871165
 30
0.0
  0
VERTEX
  5
53
330
51
100
AcDbEntity
  8
Capa 1
 62
   250
370
     9
100
AcDbVertex
100
AcDb2dVertex
 10
148.2733735475552
 20
-112.3983831871165
 30
0.0
  0
SEQEND
  5
54
330
51
100
AcDbEntity
  8
Capa 1
 62
   250
370
     9
  0
POLYLINE
  5
55
330
1F
100
AcDbEntity
  8
Capa 1
 62
   250
370
     9
100
AcDb2dPolyline
 66
     1
 10
0.0
 20
0.0
 30
0.0
  0
VERTEX
  5
56
330
55
100
AcDbEntity
  8
Capa 1
 62
   250
370
     9
100
AcDbVertex
100
AcDb2dVertex
 10
144.5104181679709
 20
-95.05902287602333
 30
0.0
  0
VERTEX
  5
57
330
55
100
AcDbEntity
  8
Capa 1
 62
   250
370
     9
100
AcDbVertex
100
AcDb2dVertex
 10
148.2733735475552
 20
-95.05902287602333
 30
0.0
  0
VERTEX
  5
58
330
55
100
AcDbEntity
  8
Capa 1
 62
   250
370
     9
100
AcDbVertex
100
AcDb2dVertex
 10
148.2733735475552
 20
-102.1439623016431
 30
0.0
  0
VERTEX
  5
59
330
55
100
AcDbEntity
  8
Capa 1
 62
   250
370
     9
100
AcDbVertex
100
AcDb2dVertex
 10
146.8622652802102
 20
-102.1439623016431
 30
0.0
  0
VERTEX
  5
5A
330
55
100
AcDbEntity
  8
Capa 1
 62
   250
370
     9
100
AcDbVertex
100
AcDb2dVertex
 10
146.8622652802102
 20
-96.99929674362026
 30
0.0
  0
VERTEX
  5
5B
330
55
100
AcDbEntity
  8
Capa 1
 62
   250
370
     9
100
AcDbVertex
100
AcDb2dVertex
 10
144.5104181679709
 20
-96.99929674362026
 30
0.0
  0
VERTEX
  5
5C
330
55
100
AcDbEntity
  8
Capa 1
 62
   250
370
     9
100
AcDbVertex
100
AcDb2dVertex
 10
144.5104181679709
 20
-95.05902287602333
 30
0.0
  0
SEQEND
  5
5D
330
55
100
AcDbEntity
  8
Capa 1
 62
   250
370
     9
  0
POLYLINE
  5
5E
330
1F
100
AcDbEntity
  8
Capa 1
 62
   250
370
     9
100
AcDb2dPolyline
 66
     1
 10
0.0
 20
0.0
 30
0.0
  0
VERTEX
  5
5F
330
5E
100
AcDbEntity
  8
Capa 1
 62
   250
370
     9
100
AcDbVertex
100
AcDb2dVertex
 10
146.8328671913051
 20
-111.9335259063399
 30
0.0
  0
VERTEX
  5
60
330
5E
100
AcDbEntity
  8
Capa 1
 62
   250
370
     9
100
AcDbVertex
100
AcDb2dVertex
 10
145.4511570128652
 20
-111.9335259063399
 30
0.0
  0
VERTEX
  5
61
330
5E
100
AcDbEntity
  8
Capa 1
 62
   250
370
     9
100
AcDbVertex
100
AcDb2dVertex
 10
145.4511570128652
 20
-102.1439623016431
 30
0.0
  0
VERTEX
  5
62
330
5E
100
AcDbEntity
  8
Capa 1
 62
   250
370
     9
100
AcDbVertex
100
AcDb2dVertex
 10
146.8328671913051
 20
-102.1439623016431
 30
0.0
  0
VERTEX
  5
63
330
5E
100
AcDbEntity
  8
Capa 1
 62
   250
370
     9
100
AcDbVertex
100
AcDb2dVertex
 10
146.8328671913051
 20
-111.9335259063399
 30
0.0
  0
SEQEND
  5
64
330
5E
100
AcDbEntity
  8
Capa 1
 62
   250
370
     9
  0
POLYLINE
  5
65
330
1F
100
AcDbEntity
  8
Capa 1
 62
   250
370
     9
100
AcDb2dPolyline
 66
     1
 10
0.0
 20
0.0
 30
0.0
  0
VERTEX
  5
66
330
65
100
AcDbEntity
  8
Capa 1
 62
   250
370
     9
100
AcDbVertex
100
AcDb2dVertex
 10
147.7736060362032
 20
-128.1883723439969
 30
0.0
  0
VERTEX
  5
67
330
65
100
AcDbEntity
  8
Capa 1
 62
   250
370
     9
100
AcDbVertex
100
AcDb2dVertex
 10
146.8328671913051
 20
-128.1883723439969
 30
0.0
  0
VERTEX
  5
68
330
65
100
AcDbEntity
  8
Capa 1
 62
   250
370
     9
100
AcDbVertex
100
AcDb2dVertex
 10
146.8328671913051
 20
-102.1439623016431
 30
0.0
  0
VERTEX
  5
69
330
65
100
AcDbEntity
  8
Capa 1
 62
   250
370
     9
100
AcDbVertex
100
AcDb2dVertex
 10
147.7736060362032
 20
-102.1439623016431
 30
0.0
  0
VERTEX
  5
6A
330
65
100
AcDbEntity
  8
Capa 1
 62
   250
370
     9
100
AcDbVertex
100
AcDb2dVertex
 10
147.7736060362032
 20
-128.1883723439969
 30
0.0
  0
SEQEND
  5
6B
330
65
100
AcDbEntity
  8
Capa 1
 62
   250
370
     9
  0
POLYLINE
  5
6C
330
1F
100
AcDbEntity
  8
Capa 1
 62
   250
370
     9
100
AcDb2dPolyline
 66
     1
 10
0.0
 20
0.0
 30
0.0
  0
VERTEX
  5
6D
330
6C
100
AcDbEntity
  8
Capa 1
 62
   250
370
     9
100
AcDbVertex
100
AcDb2dVertex
 10
146.8328671913051
 20
-125.8976181352594
 30
0.0
  0
VERTEX
  5
6E
330
6C
100
AcDbEntity
  8
Capa 1
 62
   250
370
     9
100
AcDbVertex
100
AcDb2dVertex
 10
145.9803226131217
 20
-125.5448403575699
 30
0.0
  0
VERTEX
  5
6F
330
6C
100
AcDbEntity
  8
Capa 1
 62
   250
370
     9
100
AcDbVertex
100
AcDb2dVertex
 10
145.9803226131217
 20
-122.9284118669113
 30
0.0
  0
VERTEX
  5
70
330
6C
100
AcDbEntity
  8
Capa 1
 62
   250
370
     9
100
AcDbVertex
100
AcDb2dVertex
 10
146.8328671913051
 20
-122.5756340892217
 30
0.0
  0
VERTEX
  5
71
330
6C
100
AcDbEntity
  8
Capa 1
 62
   250
370
     9
100
AcDbVertex
100
AcDb2dVertex
 10
146.8328671913051
 20
-125.8976181352594
 30
0.0
  0
SEQEND
  5
72
330
6C
100
AcDbEntity
  8
Capa 1
 62
   250
370
     9
  0
POLYLINE
  5
73
330
1F
100
AcDbEntity
  8
Capa 1
 62
   250
370
     9
100
AcDb2dPolyline
 66
     1
 10
0.0
 20
0.0
 30
0.0
  0
VERTEX
  5
74
330
73
100
AcDbEntity
  8
Capa 1
 62
   250
370
     9
100
AcDbVertex
100
AcDb2dVertex
 10
153.9434993253101
 20
-108.1117743489492
 30
0.0
  0
VERTEX
  5
75
330
73
100
AcDbEntity
  8
Capa 1
 62
   250
370
     9
100
AcDbVertex
100
AcDb2dVertex
 10
149.6219802565688
 20
-108.1117743489492
 30
0.0
  0
VERTEX
  5
76
330
73
100
AcDbEntity
  8
Capa 1
 62
   250
370
     9
100
AcDbVertex
100
AcDb2dVertex
 10
149.6219802565688
 20
-105.2895578142625
 30
0.0
  0
VERTEX
  5
77
330
73
100
AcDbEntity
  8
Capa 1
 62
   250
370
     9
100
AcDbVertex
100
AcDb2dVertex
 10
153.9434993253101
 20
-105.2895578142625
 30
0.0
  0
VERTEX
  5
78
330
73
100
AcDbEntity
  8
Capa 1
 62
   250
370
     9
100
AcDbVertex
100
AcDb2dVertex
 10
153.9434993253101
 20
-108.1117743489492
 30
0.0
  0
SEQEND
  5
79
330
73
100
AcDbEntity
  8
Capa 1
 62
   250
370
     9
  0
POLYLINE
  5
7A
330
1F
100
AcDbEntity
  8
Capa 1
 62
   250
370
     9
100
AcDb2dPolyline
 66
     1
 10
0.0
 20
0.0
 30
0.0
  0
VERTEX
  5
7B
330
7A
100
AcDbEntity
  8
Capa 1
 62
   250
370
     9
100
AcDbVertex
100
AcDb2dVertex
 10
163.288447454753
 20
-112.9330609290393
 30
0.0
  0
VERTEX
  5
7C
330
7A
100
AcDbEntity
  8
Capa 1
 62
   250
370
     9
100
AcDbVertex
100
AcDb2dVertex
 10
148.2733735475552
 20
-112.9330609290393
 30
0.0
  0
VERTEX
  5
7D
330
7A
100
AcDbEntity
  8
Capa 1
 62
   250
370
     9
100
AcDbVertex
100
AcDb2dVertex
 10
148.2733735475552
 20
-112.0511182619498
 30
0.0
  0
VERTEX
  5
7E
330
7A
100
AcDbEntity
  8
Capa 1
 62
   250
370
     9
100
AcDbVertex
100
AcDb2dVertex
 10
163.288447454753
 20
-112.0511182619498
 30
0.0
  0
VERTEX
  5
7F
330
7A
100
AcDbEntity
  8
Capa 1
 62
   250
370
     9
100
AcDbVertex
100
AcDb2dVertex
 10
163.288447454753
 20
-112.9330609290393
 30
0.0
  0
SEQEND
  5
80
330
7A
100
AcDbEntity
  8
Capa 1
 62
   250
370
     9
  0
POLYLINE
  5
81
330
1F
100
AcDbEntity
  8
Capa 1
 62
   250
370
     9
100
AcDb2dPolyline
 66
     1
 10
0.0
 20
0.0
 30
0.0
  0
VERTEX
  5
82
330
81
100
AcDbEntity
  8
Capa 1
 62
   250
370
     9
100
AcDbVertex
100
AcDb2dVertex
 10
147.7736060362032
 20
-128.1883723439969
 30
0.0
  0
VERTEX
  5
83
330
81
100
AcDbEntity
  8
Capa 1
 62
   250
370
     9
100
AcDbVertex
100
AcDb2dVertex
 10
147.7736060362032
 20
-131.5861483379871
 30
0.0
  0
VERTEX
  5
84
330
81
100
AcDbEntity
  8
Capa 1
 62
   250
370
     9
100
AcDbVertex
100
AcDb2dVertex
 10
144.5251172124203
 20
-131.5861483379871
 30
0.0
  0
VERTEX
  5
85
330
81
100
AcDbEntity
  8
Capa 1
 62
   250
370
     9
100
AcDbVertex
100
AcDb2dVertex
 10
146.8328671913051
 20
-128.1883723439969
 30
0.0
  0
VERTEX
  5
86
330
81
100
AcDbEntity
  8
Capa 1
 62
   250
370
     9
100
AcDbVertex
100
AcDb2dVertex
 10
147.7736060362032
 20
-128.1883723439969
 30
0.0
  0
SEQEND
  5
87
330
81
100
AcDbEntity
  8
Capa 1
 62
   250
370
     9
  0
POLYLINE
  5
88
330
1F
100
AcDbEntity
  8
Capa 1
 62
   250
370
     9
100
AcDb2dPolyline
 66
     1
 10
0.0
 20
0.0
 30
0.0
  0
VERTEX
  5
89
330
88
100
AcDbEntity
  8
Capa 1
 62
   250
370
     9
100
AcDbVertex
100
AcDb2dVertex
 10
147.7736060362032
 20
-146.7702612563785
 30
0.0
  0
VERTEX
  5
8A
330
88
100
AcDbEntity
  8
Capa 1
 62
   250
370
     9
100
AcDbVertex
100
AcDb2dVertex
 10
147.7736060362032
 20
-144.1832294329152
 30
0.0
  0
VERTEX
  5
8B
330
88
100
AcDbEntity
  8
Capa 1
 62
   250
370
     9
100
AcDbVertex
100
AcDb2dVertex
 10
144.5251172124203
 20
-144.1832294329152
 30
0.0
  0
VERTEX
  5
8C
330
88
100
AcDbEntity
  8
Capa 1
 62
   250
370
     9
100
AcDbVertex
100
AcDb2dVertex
 10
146.8328671913051
 20
-146.7702612563785
 30
0.0
  0
VERTEX
  5
8D
330
88
100
AcDbEntity
  8
Capa 1
 62
   250
370
     9
100
AcDbVertex
100
AcDb2dVertex
 10
147.7736060362032
 20
-146.7702612563785
 30
0.0
  0
SEQEND
  5
8E
330
88
100
AcDbEntity
  8
Capa 1
 62
   250
370
     9
  0
POLYLINE
  5
8F
330
1F
100
AcDbEntity
  8
Capa 1
 62
   250
370
     9
100
AcDb2dPolyline
 66
     1
 10
0.0
 20
0.0
 30
0.0
  0
VERTEX
  5
90
330
8F
100
AcDbEntity
  8
Capa 1
 62
   250
370
     9
100
AcDbVertex
100
AcDb2dVertex
 10
147.7736060362032
 20
-144.1832294329152
 30
0.0
  0
VERTEX
  5
91
330
8F
100
AcDbEntity
  8
Capa 1
 62
   250
370
     9
100
AcDbVertex
100
AcDb2dVertex
 10
144.5251172124203
 20
-144.1832294329152
 30
0.0
  0
VERTEX
  5
92
330
8F
100
AcDbEntity
  8
Capa 1
 62
   250
370
     9
100
AcDbVertex
100
AcDb2dVertex
 10
144.5251172124203
 20
-131.5861483379871
 30
0.0
  0
VERTEX
  5
93
330
8F
100
AcDbEntity
  8
Capa 1
 62
   250
370
     9
100
AcDbVertex
100
AcDb2dVertex
 10
147.7736060362032
 20
-131.5861483379871
 30
0.0
  0
VERTEX
  5
94
330
8F
100
AcDbEntity
  8
Capa 1
 62
   250
370
     9
100
AcDbVertex
100
AcDb2dVertex
 10
147.7736060362032
 20
-144.1832294329152
 30
0.0
  0
SEQEND
  5
95
330
8F
100
AcDbEntity
  8
Capa 1
 62
   250
370
     9
  0
POLYLINE
  5
96
330
1F
100
AcDbEntity
  8
Capa 1
 62
   250
370
     9
100
AcDb2dPolyline
 66
     1
 10
0.0
 20
0.0
 30
0.0
  0
VERTEX
  5
97
330
96
100
AcDbEntity
  8
Capa 1
 62
   250
370
     9
100
AcDbVertex
100
AcDb2dVertex
 10
147.7736060362032
 20
-161.322315263358
 30
0.0
  0
VERTEX
  5
98
330
96
100
AcDbEntity
  8
Capa 1
 62
   250
370
     9
100
AcDbVertex
100
AcDb2dVertex
 10
146.8328671913051
 20
-161.322315263358
 30
0.0
  0
VERTEX
  5
99
330
96
100
AcDbEntity
  8
Capa 1
 62
   250
370
     9
100
AcDbVertex
100
AcDb2dVertex
 10
146.8328671913051
 20
-149.5885733573839
 30
0.0
  0
VERTEX
  5
9A
330
96
100
AcDbEntity
  8
Capa 1
 62
   250
370
     9
100
AcDbVertex
100
AcDb2dVertex
 10
147.7736060362032
 20
-149.5885733573839
 30
0.0
  0
VERTEX
  5
9B
330
96
100
AcDbEntity
  8
Capa 1
 62
   250
370
     9
100
AcDbVertex
100
AcDb2dVertex
 10
147.7736060362032
 20
-161.322315263358
 30
0.0
  0
SEQEND
  5
9C
330
96
100
AcDbEntity
  8
Capa 1
 62
   250
370
     9
  0
POLYLINE
  5
9D
330
1F
100
AcDbEntity
  8
Capa 1
 62
   250
370
     9
100
AcDb2dPolyline
 66
     1
 10
0.0
 20
0.0
 30
0.0
  0
VERTEX
  5
9E
330
9D
100
AcDbEntity
  8
Capa 1
 62
   250
370
     9
100
AcDbVertex
100
AcDb2dVertex
 10
146.8328671913051
 20
-155.455444310371
 30
0.0
  0
VERTEX
  5
9F
330
9D
100
AcDbEntity
  8
Capa 1
 62
   250
370
     9
100
AcDbVertex
100
AcDb2dVertex
 10
145.9215264353127
 20
-155.1026665326814
 30
0.0
  0
VERTEX
  5
A0
330
9D
100
AcDbEntity
  8
Capa 1
 62
   250
370
     9
100
AcDbVertex
100
AcDb2dVertex
 10
145.9215264353127
 20
-152.5028893033156
 30
0.0
  0
VERTEX
  5
A1
330
9D
100
AcDbEntity
  8
Capa 1
 62
   250
370
     9
100
AcDbVertex
100
AcDb2dVertex
 10
146.8328671913051
 20
-152.150111525626
 30
0.0
  0
VERTEX
  5
A2
330
9D
100
AcDbEntity
  8
Capa 1
 62
   250
370
     9
100
AcDbVertex
100
AcDb2dVertex
 10
146.8328671913051
 20
-155.455444310371
 30
0.0
  0
SEQEND
  5
A3
330
9D
100
AcDbEntity
  8
Capa 1
 62
   250
370
     9
  0
POLYLINE
  5
A4
330
1F
100
AcDbEntity
  8
Capa 1
 62
   250
370
     9
100
AcDb2dPolyline
 66
     1
 10
0.0
 20
0.0
 30
0.0
  0
VERTEX
  5
A5
330
A4
100
AcDbEntity
  8
Capa 1
 62
   250
370
     9
100
AcDbVertex
100
AcDb2dVertex
 10
147.7736060362032
 20
-169.6838300702522
 30
0.0
  0
VERTEX
  5
A6
330
A4
100
AcDbEntity
  8
Capa 1
 62
   250
370
     9
100
AcDbVertex
100
AcDb2dVertex
 10
145.4286741025372
 20
-169.6838300702522
 30
0.0
  0
VERTEX
  5
A7
330
A4
100
AcDbEntity
  8
Capa 1
 62
   250
370
     9
100
AcDbVertex
100
AcDb2dVertex
 10
145.4286741025372
 20
-161.322315263358
 30
0.0
  0
VERTEX
  5
A8
330
A4
100
AcDbEntity
  8
Capa 1
 62
   250
370
     9
100
AcDbVertex
100
AcDb2dVertex
 10
147.7736060362032
 20
-161.322315263358
 30
0.0
  0
VERTEX
  5
A9
330
A4
100
AcDbEntity
  8
Capa 1
 62
   250
370
     9
100
AcDbVertex
100
AcDb2dVertex
 10
147.7736060362032
 20
-169.6838300702522
 30
0.0
  0
SEQEND
  5
AA
330
A4
100
AcDbEntity
  8
Capa 1
 62
   250
370
     9
  0
POLYLINE
  5
AB
330
1F
100
AcDbEntity
  8
Capa 1
 62
   250
370
     9
100
AcDb2dPolyline
 66
     1
 10
0.0
 20
0.0
 30
0.0
  0
VERTEX
  5
AC
330
AB
100
AcDbEntity
  8
Capa 1
 62
   250
370
     9
100
AcDbVertex
100
AcDb2dVertex
 10
146.8328671913051
 20
-175.2474917844814
 30
0.0
  0
VERTEX
  5
AD
330
AB
100
AcDbEntity
  8
Capa 1
 62
   250
370
     9
100
AcDbVertex
100
AcDb2dVertex
 10
145.4286741025372
 20
-175.2474917844814
 30
0.0
  0
VERTEX
  5
AE
330
AB
100
AcDbEntity
  8
Capa 1
 62
   250
370
     9
100
AcDbVertex
100
AcDb2dVertex
 10
145.4286741025372
 20
-170.6920103808841
 30
0.0
  0
VERTEX
  5
AF
330
AB
100
AcDbEntity
  8
Capa 1
 62
   250
370
     9
100
AcDbVertex
100
AcDb2dVertex
 10
146.8328671913051
 20
-170.6920103808841
 30
0.0
  0
VERTEX
  5
B0
330
AB
100
AcDbEntity
  8
Capa 1
 62
   250
370
     9
100
AcDbVertex
100
AcDb2dVertex
 10
146.8328671913051
 20
-175.2474917844814
 30
0.0
  0
SEQEND
  5
B1
330
AB
100
AcDbEntity
  8
Capa 1
 62
   250
370
     9
  0
POLYLINE
  5
B2
330
1F
100
AcDbEntity
  8
Capa 1
 62
   250
370
     9
100
AcDb2dPolyline
 66
     1
 10
0.0
 20
0.0
 30
0.0
  0
VERTEX
  5
B3
330
B2
100
AcDbEntity
  8
Capa 1
 62
   250
370
     9
100
AcDbVertex
100
AcDb2dVertex
 10
147.7736060362032
 20
-176.3676921296277
 30
0.0
  0
VERTEX
  5
B4
330
B2
100
AcDbEntity
  8
Capa 1
 62
   250
370
     9
100
AcDbVertex
100
AcDb2dVertex
 10
146.8328671913051
 20
-176.3676921296277
 30
0.0
  0
VERTEX
  5
B5
330
B2
100
AcDbEntity
  8
Capa 1
 62
   250
370
     9
100
AcDbVertex
100
AcDb2dVertex
 10
146.8328671913051
 20
-169.6838300702522
 30
0.0
  0
VERTEX
  5
B6
330
B2
100
AcDbEntity
  8
Capa 1
 62
   250
370
     9
100
AcDbVertex
100
AcDb2dVertex
 10
147.7736060362032
 20
-169.6838300702522
 30
0.0
  0
VERTEX
  5
B7
330
B2
100
AcDbEntity
  8
Capa 1
 62
   250
370
     9
100
AcDbVertex
100
AcDb2dVertex
 10
147.7736060362032
 20
-176.3676921296277
 30
0.0
  0
SEQEND
  5
B8
330
B2
100
AcDbEntity
  8
Capa 1
 62
   250
370
     9
  0
POLYLINE
  5
B9
330
1F
100
AcDbEntity
  8
Capa 1
 62
   250
370
     9
100
AcDb2dPolyline
 66
     1
 10
0.0
 20
0.0
 30
0.0
  0
VERTEX
  5
BA
330
B9
100
AcDbEntity
  8
Capa 1
 62
   250
370
     9
100
AcDbVertex
100
AcDb2dVertex
 10
147.7736060362032
 20
-176.3676921296277
 30
0.0
  0
VERTEX
  5
BB
330
B9
100
AcDbEntity
  8
Capa 1
 62
   250
370
     9
100
AcDbVertex
100
AcDb2dVertex
 10
147.7736060362032
 20
-178.1973526933674
 30
0.0
  0
VERTEX
  5
BC
330
B9
100
AcDbEntity
  8
Capa 1
 62
   250
370
     9
100
AcDbVertex
100
AcDb2dVertex
 10
144.4204937919028
 20
-178.1973526933674
 30
0.0
  0
VERTEX
  5
BD
330
B9
100
AcDbEntity
  8
Capa 1
 62
   250
370
     9
100
AcDbVertex
100
AcDb2dVertex
 10
146.8328671913051
 20
-176.3676921296277
 30
0.0
  0
VERTEX
  5
BE
330
B9
100
AcDbEntity
  8
Capa 1
 62
   250
370
     9
100
AcDbVertex
100
AcDb2dVertex
 10
147.7736060362032
 20
-176.3676921296277
 30
0.0
  0
SEQEND
  5
BF
330
B9
100
AcDbEntity
  8
Capa 1
 62
   250
370
     9
  0
POLYLINE
  5
C0
330
1F
100
AcDbEntity
  8
Capa 1
 62
   250
370
     9
100
AcDb2dPolyline
 66
     1
 10
0.0
 20
0.0
 30
0.0
  0
VERTEX
  5
C1
330
C0
100
AcDbEntity
  8
Capa 1
 62
   250
370
     9
100
AcDbVertex
100
AcDb2dVertex
 10
144.4204937919028
 20
-178.1973526933674
 30
0.0
  0
VERTEX
  5
C2
330
C0
100
AcDbEntity
  8
Capa 1
 62
   250
370
     9
100
AcDbVertex
100
AcDb2dVertex
 10
137.0271715139333
 20
-178.1973526933674
 30
0.0
  0
VERTEX
  5
C3
330
C0
100
AcDbEntity
  8
Capa 1
 62
   250
370
     9
100
AcDbVertex
100
AcDb2dVertex
 10
137.0271715139333
 20
-182.4167739934214
 30
0.0
  0
VERTEX
  5
C4
330
C0
100
AcDbEntity
  8
Capa 1
 62
   250
370
     9
100
AcDbVertex
100
AcDb2dVertex
 10
144.4204937919028
 20
-182.4167739934214
 30
0.0
  0
VERTEX
  5
C5
330
C0
100
AcDbEntity
  8
Capa 1
 62
   250
370
     9
100
AcDbVertex
100
AcDb2dVertex
 10
145.4286741025372
 20
-181.4085936827883
 30
0.0
  0
VERTEX
  5
C6
330
C0
100
AcDbEntity
  8
Capa 1
 62
   250
370
     9
100
AcDbVertex
100
AcDb2dVertex
 10
145.4286741025372
 20
-179.6909531535631
 30
0.0
  0
VERTEX
  5
C7
330
C0
100
AcDbEntity
  8
Capa 1
 62
   250
370
     9
100
AcDbVertex
100
AcDb2dVertex
 10
146.8328671913051
 20
-179.6909531535631
 30
0.0
  0
VERTEX
  5
C8
330
C0
100
AcDbEntity
  8
Capa 1
 62
   250
370
     9
100
AcDbVertex
100
AcDb2dVertex
 10
147.7736060362032
 20
-179.6909531535631
 30
0.0
  0
VERTEX
  5
C9
330
C0
100
AcDbEntity
  8
Capa 1
 62
   250
370
     9
100
AcDbVertex
100
AcDb2dVertex
 10
147.7736060362032
 20
-178.1973526933674
 30
0.0
  0
VERTEX
  5
CA
330
C0
100
AcDbEntity
  8
Capa 1
 62
   250
370
     9
100
AcDbVertex
100
AcDb2dVertex
 10
144.4204937919028
 20
-178.1973526933674
 30
0.0
  0
SEQEND
  5
CB
330
C0
100
AcDbEntity
  8
Capa 1
 62
   250
370
     9
  0
POLYLINE
  5
CC
330
1F
100
AcDbEntity
  8
Capa 1
 62
   250
370
     9
100
AcDb2dPolyline
 66
     1
 10
0.0
 20
0.0
 30
0.0
  0
VERTEX
  5
CD
330
CC
100
AcDbEntity
  8
Capa 1
 62
   250
370
     9
100
AcDbVertex
100
AcDb2dVertex
 10
146.8328671913051
 20
-179.6909531535631
 30
0.0
  0
VERTEX
  5
CE
330
CC
100
AcDbEntity
  8
Capa 1
 62
   250
370
     9
100
AcDbVertex
100
AcDb2dVertex
 10
147.7736060362032
 20
-179.6909531535631
 30
0.0
  0
VERTEX
  5
CF
330
CC
100
AcDbEntity
  8
Capa 1
 62
   250
370
     9
100
AcDbVertex
100
AcDb2dVertex
 10
147.7736060362032
 20
-182.9395341544888
 30
0.0
  0
VERTEX
  5
D0
330
CC
100
AcDbEntity
  8
Capa 1
 62
   250
370
     9
100
AcDbVertex
100
AcDb2dVertex
 10
144.4204937919028
 20
-182.9395341544888
 30
0.0
  0
VERTEX
  5
D1
330
CC
100
AcDbEntity
  8
Capa 1
 62
   250
370
     9
100
AcDbVertex
100
AcDb2dVertex
 10
144.4204937919028
 20
-182.4167739934214
 30
0.0
  0
VERTEX
  5
D2
330
CC
100
AcDbEntity
  8
Capa 1
 62
   250
370
     9
100
AcDbVertex
100
AcDb2dVertex
 10
145.4286741025372
 20
-181.4085936827883
 30
0.0
  0
VERTEX
  5
D3
330
CC
100
AcDbEntity
  8
Capa 1
 62
   250
370
     9
100
AcDbVertex
100
AcDb2dVertex
 10
146.8328671913051
 20
-181.4085936827883
 30
0.0
  0
VERTEX
  5
D4
330
CC
100
AcDbEntity
  8
Capa 1
 62
   250
370
     9
100
AcDbVertex
100
AcDb2dVertex
 10
146.8328671913051
 20
-179.6909531535631
 30
0.0
  0
SEQEND
  5
D5
330
CC
100
AcDbEntity
  8
Capa 1
 62
   250
370
     9
  0
POLYLINE
  5
D6
330
1F
100
AcDbEntity
  8
Capa 1
 62
   250
370
     9
100
AcDb2dPolyline
 66
     1
 10
0.0
 20
0.0
 30
0.0
  0
VERTEX
  5
D7
330
D6
100
AcDbEntity
  8
Capa 1
 62
   250
370
     9
100
AcDbVertex
100
AcDb2dVertex
 10
163.3167343864107
 20
-98.20461838855968
 30
0.0
  0
VERTEX
  5
D8
330
D6
100
AcDbEntity
  8
Capa 1
 62
   250
370
     9
100
AcDbVertex
100
AcDb2dVertex
 10
155.7982343882889
 20
-98.20461838822247
 30
0.0
  0
SEQEND
  5
D9
330
D6
100
AcDbEntity
  8
Capa 1
 62
   250
370
     9
  0
POLYLINE
  5
DA
330
1F
100
AcDbEntity
  8
Capa 1
 62
   250
370
     9
100
AcDb2dPolyline
 66
     1
 10
0.0
 20
0.0
 30
0.0
  0
VERTEX
  5
DB
330
DA
100
AcDbEntity
  8
Capa 1
 62
   250
370
     9
100
AcDbVertex
100
AcDb2dVertex
 10
163.8164656709245
 20
-106.4194185698336
 30
0.0
  0
VERTEX
  5
DC
330
DA
100
AcDbEntity
  8
Capa 1
 62
   250
370
     9
100
AcDbVertex
100
AcDb2dVertex
 10
161.9680913372496
 20
-106.4194185694036
 30
0.0
  0
SEQEND
  5
DD
330
DA
100
AcDbEntity
  8
Capa 1
 62
   250
370
     9
  0
POLYLINE
  5
DE
330
1F
100
AcDbEntity
  8
Capa 1
 62
   250
370
     9
100
AcDb2dPolyline
 66
     1
 10
0.0
 20
0.0
 30
0.0
  0
VERTEX
  5
DF
330
DE
100
AcDbEntity
  8
Capa 1
 62
   250
370
     9
100
AcDbVertex
100
AcDb2dVertex
 10
164.7572020039527
 20
-112.5305444879508
 30
0.0
  0
VERTEX
  5
E0
330
DE
100
AcDbEntity
  8
Capa 1
 62
   250
370
     9
100
AcDbVertex
100
AcDb2dVertex
 10
163.2884085601146
 20
-112.530544487492
 30
0.0
  0
SEQEND
  5
E1
330
DE
100
AcDbEntity
  8
Capa 1
 62
   250
370
     9
  0
POLYLINE
  5
E2
330
1F
100
AcDbEntity
  8
Capa 1
 62
   250
370
     9
100
AcDb2dPolyline
 66
     1
 10
0.0
 20
0.0
 30
0.0
  0
VERTEX
  5
E3
330
E2
100
AcDbEntity
  8
Capa 1
 62
   250
370
     9
100
AcDbVertex
100
AcDb2dVertex
 10
167.0796897661316
 20
-95.05902287610932
 30
0.0
  0
VERTEX
  5
E4
330
E2
100
AcDbEntity
  8
Capa 1
 62
   250
370
     9
100
AcDbVertex
100
AcDb2dVertex
 10
163.3167343865519
 20
-95.05902287593992
 30
0.0
  0
VERTEX
  5
E5
330
E2
100
AcDbEntity
  8
Capa 1
 62
   250
370
     9
100
AcDbVertex
100
AcDb2dVertex
 10
163.3167343862304
 20
-102.1439623015596
 30
0.0
  0
VERTEX
  5
E6
330
E2
100
AcDbEntity
  8
Capa 1
 62
   250
370
     9
100
AcDbVertex
100
AcDb2dVertex
 10
164.7278426535754
 20
-102.1439623016232
 30
0.0
  0
VERTEX
  5
E7
330
E2
100
AcDbEntity
  8
Capa 1
 62
   250
370
     9
100
AcDbVertex
100
AcDb2dVertex
 10
164.7278426538044
 20
-96.99929674360037
 30
0.0
  0
VERTEX
  5
E8
330
E2
100
AcDbEntity
  8
Capa 1
 62
   250
370
     9
100
AcDbVertex
100
AcDb2dVertex
 10
167.0796897660469
 20
-96.99929674370593
 30
0.0
  0
VERTEX
  5
E9
330
E2
100
AcDbEntity
  8
Capa 1
 62
   250
370
     9
100
AcDbVertex
100
AcDb2dVertex
 10
167.0796897661316
 20
-95.05902287610932
 30
0.0
  0
SEQEND
  5
EA
330
E2
100
AcDbEntity
  8
Capa 1
 62
   250
370
     9
  0
POLYLINE
  5
EB
330
1F
100
AcDbEntity
  8
Capa 1
 62
   250
370
     9
100
AcDb2dPolyline
 66
     1
 10
0.0
 20
0.0
 30
0.0
  0
VERTEX
  5
EC
330
EB
100
AcDbEntity
  8
Capa 1
 62
   250
370
     9
100
AcDbVertex
100
AcDb2dVertex
 10
164.7572407420429
 20
-111.933525906321
 30
0.0
  0
VERTEX
  5
ED
330
EB
100
AcDbEntity
  8
Capa 1
 62
   250
370
     9
100
AcDbVertex
100
AcDb2dVertex
 10
166.1389509204827
 20
-111.9335259063829
 30
0.0
  0
VERTEX
  5
EE
330
EB
100
AcDbEntity
  8
Capa 1
 62
   250
370
     9
100
AcDbVertex
100
AcDb2dVertex
 10
166.1389509209203
 20
-102.1439623016864
 30
0.0
  0
VERTEX
  5
EF
330
EB
100
AcDbEntity
  8
Capa 1
 62
   250
370
     9
100
AcDbVertex
100
AcDb2dVertex
 10
164.7572407424798
 20
-102.1439623016244
 30
0.0
  0
VERTEX
  5
F0
330
EB
100
AcDbEntity
  8
Capa 1
 62
   250
370
     9
100
AcDbVertex
100
AcDb2dVertex
 10
164.7572407420429
 20
-111.933525906321
 30
0.0
  0
SEQEND
  5
F1
330
EB
100
AcDbEntity
  8
Capa 1
 62
   250
370
     9
  0
POLYLINE
  5
F2
330
1F
100
AcDbEntity
  8
Capa 1
 62
   250
370
     9
100
AcDb2dPolyline
 66
     1
 10
0.0
 20
0.0
 30
0.0
  0
VERTEX
  5
F3
330
F2
100
AcDbEntity
  8
Capa 1
 62
   250
370
     9
100
AcDbVertex
100
AcDb2dVertex
 10
163.8165018964145
 20
-128.188372343936
 30
0.0
  0
VERTEX
  5
F4
330
F2
100
AcDbEntity
  8
Capa 1
 62
   250
370
     9
100
AcDbVertex
100
AcDb2dVertex
 10
164.7572407413126
 20
-128.1883723439783
 30
0.0
  0
VERTEX
  5
F5
330
F2
100
AcDbEntity
  8
Capa 1
 62
   250
370
     9
100
AcDbVertex
100
AcDb2dVertex
 10
164.7572407424798
 20
-102.1439623016244
 30
0.0
  0
VERTEX
  5
F6
330
F2
100
AcDbEntity
  8
Capa 1
 62
   250
370
     9
100
AcDbVertex
100
AcDb2dVertex
 10
163.8165018975824
 20
-102.1439623015821
 30
0.0
  0
VERTEX
  5
F7
330
F2
100
AcDbEntity
  8
Capa 1
 62
   250
370
     9
100
AcDbVertex
100
AcDb2dVertex
 10
163.8165018964145
 20
-128.188372343936
 30
0.0
  0
SEQEND
  5
F8
330
F2
100
AcDbEntity
  8
Capa 1
 62
   250
370
     9
  0
POLYLINE
  5
F9
330
1F
100
AcDbEntity
  8
Capa 1
 62
   250
370
     9
100
AcDb2dPolyline
 66
     1
 10
0.0
 20
0.0
 30
0.0
  0
VERTEX
  5
FA
330
F9
100
AcDbEntity
  8
Capa 1
 62
   250
370
     9
100
AcDbVertex
100
AcDb2dVertex
 10
164.7572407414146
 20
-125.8976181352408
 30
0.0
  0
VERTEX
  5
FB
330
F9
100
AcDbEntity
  8
Capa 1
 62
   250
370
     9
100
AcDbVertex
100
AcDb2dVertex
 10
165.609785319616
 20
-125.5448403575894
 30
0.0
  0
VERTEX
  5
FC
330
F9
100
AcDbEntity
  8
Capa 1
 62
   250
370
     9
100
AcDbVertex
100
AcDb2dVertex
 10
165.6097853197321
 20
-122.9284118669309
 30
0.0
  0
VERTEX
  5
FD
330
F9
100
AcDbEntity
  8
Capa 1
 62
   250
370
     9
100
AcDbVertex
100
AcDb2dVertex
 10
164.7572407415629
 20
-122.5756340892031
 30
0.0
  0
VERTEX
  5
FE
330
F9
100
AcDbEntity
  8
Capa 1
 62
   250
370
     9
100
AcDbVertex
100
AcDb2dVertex
 10
164.7572407414146
 20
-125.8976181352408
 30
0.0
  0
SEQEND
  5
FF
330
F9
100
AcDbEntity
  8
Capa 1
 62
   250
370
     9
  0
POLYLINE
  5
100
330
1F
100
AcDbEntity
  8
Capa 1
 62
   250
370
     9
100
AcDb2dPolyline
 66
     1
 10
0.0
 20
0.0
 30
0.0
  0
VERTEX
  5
101
330
100
100
AcDbEntity
  8
Capa 1
 62
   250
370
     9
100
AcDbVertex
100
AcDb2dVertex
 10
157.6466086082104
 20
-108.1117743486117
 30
0.0
  0
VERTEX
  5
102
330
100
100
AcDbEntity
  8
Capa 1
 62
   250
370
     9
100
AcDbVertex
100
AcDb2dVertex
 10
161.9681276769485
 20
-108.1117743488055
 30
0.0
  0
VERTEX
  5
103
330
100
100
AcDbEntity
  8
Capa 1
 62
   250
370
     9
100
AcDbVertex
100
AcDb2dVertex
 10
161.9681276770756
 20
-105.2895578141188
 30
0.0
  0
VERTEX
  5
104
330
100
100
AcDbEntity
  8
Capa 1
 62
   250
370
     9
100
AcDbVertex
100
AcDb2dVertex
 10
157.6466086083375
 20
-105.2895578139246
 30
0.0
  0
VERTEX
  5
105
330
100
100
AcDbEntity
  8
Capa 1
 62
   250
370
     9
100
AcDbVertex
100
AcDb2dVertex
 10
157.6466086082104
 20
-108.1117743486117
 30
0.0
  0
SEQEND
  5
106
330
100
100
AcDbEntity
  8
Capa 1
 62
   250
370
     9
  0
POLYLINE
  5
107
330
1F
100
AcDbEntity
  8
Capa 1
 62
   250
370
     9
100
AcDb2dPolyline
 66
     1
 10
0.0
 20
0.0
 30
0.0
  0
VERTEX
  5
108
330
107
100
AcDbEntity
  8
Capa 1
 62
   250
370
     9
100
AcDbVertex
100
AcDb2dVertex
 10
163.8165018964145
 20
-128.188372343936
 30
0.0
  0
VERTEX
  5
109
330
107
100
AcDbEntity
  8
Capa 1
 62
   250
370
     9
100
AcDbVertex
100
AcDb2dVertex
 10
163.816501896263
 20
-131.5861483379261
 30
0.0
  0
VERTEX
  5
10A
330
107
100
AcDbEntity
  8
Capa 1
 62
   250
370
     9
100
AcDbVertex
100
AcDb2dVertex
 10
167.0649907200459
 20
-131.5861483380721
 30
0.0
  0
VERTEX
  5
10B
330
107
100
AcDbEntity
  8
Capa 1
 62
   250
370
     9
100
AcDbVertex
100
AcDb2dVertex
 10
164.7572407413126
 20
-128.1883723439783
 30
0.0
  0
VERTEX
  5
10C
330
107
100
AcDbEntity
  8
Capa 1
 62
   250
370
     9
100
AcDbVertex
100
AcDb2dVertex
 10
163.8165018964145
 20
-128.188372343936
 30
0.0
  0
SEQEND
  5
10D
330
107
100
AcDbEntity
  8
Capa 1
 62
   250
370
     9
  0
POLYLINE
  5
10E
330
1F
100
AcDbEntity
  8
Capa 1
 62
   250
370
     9
100
AcDb2dPolyline
 66
     1
 10
0.0
 20
0.0
 30
0.0
  0
VERTEX
  5
10F
330
10E
100
AcDbEntity
  8
Capa 1
 62
   250
370
     9
100
AcDbVertex
100
AcDb2dVertex
 10
163.8165018955783
 20
-146.7702612563179
 30
0.0
  0
VERTEX
  5
110
330
10E
100
AcDbEntity
  8
Capa 1
 62
   250
370
     9
100
AcDbVertex
100
AcDb2dVertex
 10
163.8165018956951
 20
-144.1832294328542
 30
0.0
  0
VERTEX
  5
111
330
10E
100
AcDbEntity
  8
Capa 1
 62
   250
370
     9
100
AcDbVertex
100
AcDb2dVertex
 10
167.064990719478
 20
-144.1832294330002
 30
0.0
  0
VERTEX
  5
112
330
10E
100
AcDbEntity
  8
Capa 1
 62
   250
370
     9
100
AcDbVertex
100
AcDb2dVertex
 10
164.7572407404764
 20
-146.7702612563602
 30
0.0
  0
VERTEX
  5
113
330
10E
100
AcDbEntity
  8
Capa 1
 62
   250
370
     9
100
AcDbVertex
100
AcDb2dVertex
 10
163.8165018955783
 20
-146.7702612563179
 30
0.0
  0
SEQEND
  5
114
330
10E
100
AcDbEntity
  8
Capa 1
 62
   250
370
     9
  0
POLYLINE
  5
115
330
1F
100
AcDbEntity
  8
Capa 1
 62
   250
370
     9
100
AcDb2dPolyline
 66
     1
 10
0.0
 20
0.0
 30
0.0
  0
VERTEX
  5
116
330
115
100
AcDbEntity
  8
Capa 1
 62
   250
370
     9
100
AcDbVertex
100
AcDb2dVertex
 10
163.8165018956951
 20
-144.1832294328542
 30
0.0
  0
VERTEX
  5
117
330
115
100
AcDbEntity
  8
Capa 1
 62
   250
370
     9
100
AcDbVertex
100
AcDb2dVertex
 10
167.064990719478
 20
-144.1832294330002
 30
0.0
  0
VERTEX
  5
118
330
115
100
AcDbEntity
  8
Capa 1
 62
   250
370
     9
100
AcDbVertex
100
AcDb2dVertex
 10
167.0649907200459
 20
-131.5861483380721
 30
0.0
  0
VERTEX
  5
119
330
115
100
AcDbEntity
  8
Capa 1
 62
   250
370
     9
100
AcDbVertex
100
AcDb2dVertex
 10
163.816501896263
 20
-131.5861483379261
 30
0.0
  0
VERTEX
  5
11A
330
115
100
AcDbEntity
  8
Capa 1
 62
   250
370
     9
100
AcDbVertex
100
AcDb2dVertex
 10
163.8165018956951
 20
-144.1832294328542
 30
0.0
  0
SEQEND
  5
11B
330
115
100
AcDbEntity
  8
Capa 1
 62
   250
370
     9
  0
POLYLINE
  5
11C
330
1F
100
AcDbEntity
  8
Capa 1
 62
   250
370
     9
100
AcDb2dPolyline
 66
     1
 10
0.0
 20
0.0
 30
0.0
  0
VERTEX
  5
11D
330
11C
100
AcDbEntity
  8
Capa 1
 62
   250
370
     9
100
AcDbVertex
100
AcDb2dVertex
 10
163.8165018949263
 20
-161.3223152632971
 30
0.0
  0
VERTEX
  5
11E
330
11C
100
AcDbEntity
  8
Capa 1
 62
   250
370
     9
100
AcDbVertex
100
AcDb2dVertex
 10
164.7572407398239
 20
-161.3223152633394
 30
0.0
  0
VERTEX
  5
11F
330
11C
100
AcDbEntity
  8
Capa 1
 62
   250
370
     9
100
AcDbVertex
100
AcDb2dVertex
 10
164.7572407403494
 20
-149.5885733573653
 30
0.0
  0
VERTEX
  5
120
330
11C
100
AcDbEntity
  8
Capa 1
 62
   250
370
     9
100
AcDbVertex
100
AcDb2dVertex
 10
163.8165018954519
 20
-149.588573357323
 30
0.0
  0
VERTEX
  5
121
330
11C
100
AcDbEntity
  8
Capa 1
 62
   250
370
     9
100
AcDbVertex
100
AcDb2dVertex
 10
163.8165018949263
 20
-161.3223152632971
 30
0.0
  0
SEQEND
  5
122
330
11C
100
AcDbEntity
  8
Capa 1
 62
   250
370
     9
  0
POLYLINE
  5
123
330
1F
100
AcDbEntity
  8
Capa 1
 62
   250
370
     9
100
AcDb2dPolyline
 66
     1
 10
0.0
 20
0.0
 30
0.0
  0
VERTEX
  5
124
330
123
100
AcDbEntity
  8
Capa 1
 62
   250
370
     9
100
AcDbVertex
100
AcDb2dVertex
 10
164.7572407400882
 20
-155.4554443103524
 30
0.0
  0
VERTEX
  5
125
330
123
100
AcDbEntity
  8
Capa 1
 62
   250
370
     9
100
AcDbVertex
100
AcDb2dVertex
 10
165.6685814960986
 20
-155.1026665327038
 30
0.0
  0
VERTEX
  5
126
330
123
100
AcDbEntity
  8
Capa 1
 62
   250
370
     9
100
AcDbVertex
100
AcDb2dVertex
 10
165.6685814962154
 20
-152.502889303338
 30
0.0
  0
VERTEX
  5
127
330
123
100
AcDbEntity
  8
Capa 1
 62
   250
370
     9
100
AcDbVertex
100
AcDb2dVertex
 10
164.7572407402365
 20
-152.1501115256074
 30
0.0
  0
VERTEX
  5
128
330
123
100
AcDbEntity
  8
Capa 1
 62
   250
370
     9
100
AcDbVertex
100
AcDb2dVertex
 10
164.7572407400882
 20
-155.4554443103524
 30
0.0
  0
SEQEND
  5
129
330
123
100
AcDbEntity
  8
Capa 1
 62
   250
370
     9
  0
POLYLINE
  5
12A
330
1F
100
AcDbEntity
  8
Capa 1
 62
   250
370
     9
100
AcDb2dPolyline
 66
     1
 10
0.0
 20
0.0
 30
0.0
  0
VERTEX
  5
12B
330
12A
100
AcDbEntity
  8
Capa 1
 62
   250
370
     9
100
AcDbVertex
100
AcDb2dVertex
 10
163.8165018945522
 20
-169.6838300701913
 30
0.0
  0
VERTEX
  5
12C
330
12A
100
AcDbEntity
  8
Capa 1
 62
   250
370
     9
100
AcDbVertex
100
AcDb2dVertex
 10
166.1614338282176
 20
-169.6838300702965
 30
0.0
  0
VERTEX
  5
12D
330
12A
100
AcDbEntity
  8
Capa 1
 62
   250
370
     9
100
AcDbVertex
100
AcDb2dVertex
 10
166.1614338285949
 20
-161.3223152634023
 30
0.0
  0
VERTEX
  5
12E
330
12A
100
AcDbEntity
  8
Capa 1
 62
   250
370
     9
100
AcDbVertex
100
AcDb2dVertex
 10
163.8165018949263
 20
-161.3223152632971
 30
0.0
  0
VERTEX
  5
12F
330
12A
100
AcDbEntity
  8
Capa 1
 62
   250
370
     9
100
AcDbVertex
100
AcDb2dVertex
 10
163.8165018945522
 20
-169.6838300701913
 30
0.0
  0
SEQEND
  5
130
330
12A
100
AcDbEntity
  8
Capa 1
 62
   250
370
     9
  0
POLYLINE
  5
131
330
1F
100
AcDbEntity
  8
Capa 1
 62
   250
370
     9
100
AcDb2dPolyline
 66
     1
 10
0.0
 20
0.0
 30
0.0
  0
VERTEX
  5
132
330
131
100
AcDbEntity
  8
Capa 1
 62
   250
370
     9
100
AcDbVertex
100
AcDb2dVertex
 10
164.7572407391995
 20
-175.2474917844629
 30
0.0
  0
VERTEX
  5
133
330
131
100
AcDbEntity
  8
Capa 1
 62
   250
370
     9
100
AcDbVertex
100
AcDb2dVertex
 10
166.1614338279706
 20
-175.2474917845257
 30
0.0
  0
VERTEX
  5
134
330
131
100
AcDbEntity
  8
Capa 1
 62
   250
370
     9
100
AcDbVertex
100
AcDb2dVertex
 10
166.1614338281721
 20
-170.6920103809284
 30
0.0
  0
VERTEX
  5
135
330
131
100
AcDbEntity
  8
Capa 1
 62
   250
370
     9
100
AcDbVertex
100
AcDb2dVertex
 10
164.7572407394042
 20
-170.6920103808655
 30
0.0
  0
VERTEX
  5
136
330
131
100
AcDbEntity
  8
Capa 1
 62
   250
370
     9
100
AcDbVertex
100
AcDb2dVertex
 10
164.7572407391995
 20
-175.2474917844629
 30
0.0
  0
SEQEND
  5
137
330
131
100
AcDbEntity
  8
Capa 1
 62
   250
370
     9
  0
POLYLINE
  5
138
330
1F
100
AcDbEntity
  8
Capa 1
 62
   250
370
     9
100
AcDb2dPolyline
 66
     1
 10
0.0
 20
0.0
 30
0.0
  0
VERTEX
  5
139
330
138
100
AcDbEntity
  8
Capa 1
 62
   250
370
     9
100
AcDbVertex
100
AcDb2dVertex
 10
163.8165018942519
 20
-176.3676921295668
 30
0.0
  0
VERTEX
  5
13A
330
138
100
AcDbEntity
  8
Capa 1
 62
   250
370
     9
100
AcDbVertex
100
AcDb2dVertex
 10
164.7572407391462
 20
-176.3676921296091
 30
0.0
  0
VERTEX
  5
13B
330
138
100
AcDbEntity
  8
Capa 1
 62
   250
370
     9
100
AcDbVertex
100
AcDb2dVertex
 10
164.7572407394465
 20
-169.6838300702337
 30
0.0
  0
VERTEX
  5
13C
330
138
100
AcDbEntity
  8
Capa 1
 62
   250
370
     9
100
AcDbVertex
100
AcDb2dVertex
 10
163.8165018945522
 20
-169.6838300701913
 30
0.0
  0
VERTEX
  5
13D
330
138
100
AcDbEntity
  8
Capa 1
 62
   250
370
     9
100
AcDbVertex
100
AcDb2dVertex
 10
163.8165018942519
 20
-176.3676921295668
 30
0.0
  0
SEQEND
  5
13E
330
138
100
AcDbEntity
  8
Capa 1
 62
   250
370
     9
  0
POLYLINE
  5
13F
330
1F
100
AcDbEntity
  8
Capa 1
 62
   250
370
     9
100
AcDb2dPolyline
 66
     1
 10
0.0
 20
0.0
 30
0.0
  0
VERTEX
  5
140
330
13F
100
AcDbEntity
  8
Capa 1
 62
   250
370
     9
100
AcDbVertex
100
AcDb2dVertex
 10
163.8165018942519
 20
-176.3676921295668
 30
0.0
  0
VERTEX
  5
141
330
13F
100
AcDbEntity
  8
Capa 1
 62
   250
370
     9
100
AcDbVertex
100
AcDb2dVertex
 10
163.8165018941679
 20
-178.1973526933064
 30
0.0
  0
VERTEX
  5
142
330
13F
100
AcDbEntity
  8
Capa 1
 62
   250
370
     9
100
AcDbVertex
100
AcDb2dVertex
 10
167.1696141384677
 20
-178.1973526934572
 30
0.0
  0
VERTEX
  5
143
330
13F
100
AcDbEntity
  8
Capa 1
 62
   250
370
     9
100
AcDbVertex
100
AcDb2dVertex
 10
164.7572407391462
 20
-176.3676921296091
 30
0.0
  0
VERTEX
  5
144
330
13F
100
AcDbEntity
  8
Capa 1
 62
   250
370
     9
100
AcDbVertex
100
AcDb2dVertex
 10
163.8165018942519
 20
-176.3676921295668
 30
0.0
  0
SEQEND
  5
145
330
13F
100
AcDbEntity
  8
Capa 1
 62
   250
370
     9
  0
POLYLINE
  5
146
330
1F
100
AcDbEntity
  8
Capa 1
 62
   250
370
     9
100
AcDb2dPolyline
 66
     1
 10
0.0
 20
0.0
 30
0.0
  0
VERTEX
  5
147
330
146
100
AcDbEntity
  8
Capa 1
 62
   250
370
     9
100
AcDbVertex
100
AcDb2dVertex
 10
167.1696141384677
 20
-178.1973526934572
 30
0.0
  0
VERTEX
  5
148
330
146
100
AcDbEntity
  8
Capa 1
 62
   250
370
     9
100
AcDbVertex
100
AcDb2dVertex
 10
174.5629364164371
 20
-178.197352693789
 30
0.0
  0
VERTEX
  5
149
330
146
100
AcDbEntity
  8
Capa 1
 62
   250
370
     9
100
AcDbVertex
100
AcDb2dVertex
 10
174.5629364162504
 20
-182.416773993843
 30
0.0
  0
VERTEX
  5
14A
330
146
100
AcDbEntity
  8
Capa 1
 62
   250
370
     9
100
AcDbVertex
100
AcDb2dVertex
 10
167.1696141382809
 20
-182.4167739935112
 30
0.0
  0
VERTEX
  5
14B
330
146
100
AcDbEntity
  8
Capa 1
 62
   250
370
     9
100
AcDbVertex
100
AcDb2dVertex
 10
166.1614338276921
 20
-181.4085936828326
 30
0.0
  0
VERTEX
  5
14C
330
146
100
AcDbEntity
  8
Capa 1
 62
   250
370
     9
100
AcDbVertex
100
AcDb2dVertex
 10
166.1614338277697
 20
-179.6909531536074
 30
0.0
  0
VERTEX
  5
14D
330
146
100
AcDbEntity
  8
Capa 1
 62
   250
370
     9
100
AcDbVertex
100
AcDb2dVertex
 10
164.757240738998
 20
-179.6909531535445
 30
0.0
  0
VERTEX
  5
14E
330
146
100
AcDbEntity
  8
Capa 1
 62
   250
370
     9
100
AcDbVertex
100
AcDb2dVertex
 10
163.8165018941005
 20
-179.6909531535021
 30
0.0
  0
VERTEX
  5
14F
330
146
100
AcDbEntity
  8
Capa 1
 62
   250
370
     9
100
AcDbVertex
100
AcDb2dVertex
 10
163.8165018941679
 20
-178.1973526933064
 30
0.0
  0
VERTEX
  5
150
330
146
100
AcDbEntity
  8
Capa 1
 62
   250
370
     9
100
AcDbVertex
100
AcDb2dVertex
 10
167.1696141384677
 20
-178.1973526934572
 30
0.0
  0
SEQEND
  5
151
330
146
100
AcDbEntity
  8
Capa 1
 62
   250
370
     9
  0
POLYLINE
  5
152
330
1F
100
AcDbEntity
  8
Capa 1
 62
   250
370
     9
100
AcDb2dPolyline
 66
     1
 10
0.0
 20
0.0
 30
0.0
  0
VERTEX
  5
153
330
152
100
AcDbEntity
  8
Capa 1
 62
   250
370
     9
100
AcDbVertex
100
AcDb2dVertex
 10
164.757240738998
 20
-179.6909531535445
 30
0.0
  0
VERTEX
  5
154
330
152
100
AcDbEntity
  8
Capa 1
 62
   250
370
     9
100
AcDbVertex
100
AcDb2dVertex
 10
163.8165018941005
 20
-179.6909531535021
 30
0.0
  0
VERTEX
  5
155
330
152
100
AcDbEntity
  8
Capa 1
 62
   250
370
     9
100
AcDbVertex
100
AcDb2dVertex
 10
163.8165018939561
 20
-182.9395341544278
 30
0.0
  0
VERTEX
  5
156
330
152
100
AcDbEntity
  8
Capa 1
 62
   250
370
     9
100
AcDbVertex
100
AcDb2dVertex
 10
167.1696141382559
 20
-182.9395341545786
 30
0.0
  0
VERTEX
  5
157
330
152
100
AcDbEntity
  8
Capa 1
 62
   250
370
     9
100
AcDbVertex
100
AcDb2dVertex
 10
167.1696141382809
 20
-182.4167739935112
 30
0.0
  0
VERTEX
  5
158
330
152
100
AcDbEntity
  8
Capa 1
 62
   250
370
     9
100
AcDbVertex
100
AcDb2dVertex
 10
166.1614338276921
 20
-181.4085936828326
 30
0.0
  0
VERTEX
  5
159
330
152
100
AcDbEntity
  8
Capa 1
 62
   250
370
     9
100
AcDbVertex
100
AcDb2dVertex
 10
164.7572407389203
 20
-181.4085936827697
 30
0.0
  0
VERTEX
  5
15A
330
152
100
AcDbEntity
  8
Capa 1
 62
   250
370
     9
100
AcDbVertex
100
AcDb2dVertex
 10
164.757240738998
 20
-179.6909531535445
 30
0.0
  0
SEQEND
  5
15B
330
152
100
AcDbEntity
  8
Capa 1
 62
   250
370
     9
  0
POLYLINE
  5
15C
330
1F
100
AcDbEntity
  8
Capa 1
 62
   250
370
     9
100
AcDb2dPolyline
 66
     1
 10
0.0
 20
0.0
 30
0.0
  0
VERTEX
  5
15D
330
15C
100
AcDbEntity
  8
Capa 1
 62
   250
370
     9
100
AcDbVertex
100
AcDb2dVertex
 10
147.7736060362032
 20
-180.137092161269
 30
0.0
  0
VERTEX
  5
15E
330
15C
100
AcDbEntity
  8
Capa 1
 62
   250
370
     9
100
AcDbVertex
100
AcDb2dVertex
 10
163.8165018939561
 20
-180.137092161269
 30
0.0
  0
SEQEND
  5
15F
330
15C
100
AcDbEntity
  8
Capa 1
 62
   250
370
     9
  0
POLYLINE
  5
160
330
1F
100
AcDbEntity
  8
Capa 1
 62
   250
370
     9
100
AcDb2dPolyline
 66
     1
 10
0.0
 20
0.0
 30
0.0
  0
VERTEX
  5
161
330
160
100
AcDbEntity
  8
Capa 1
 62
   250
370
     9
100
AcDbVertex
100
AcDb2dVertex
 10
147.7736060362032
 20
-160.6167611296843
 30
0.0
  0
VERTEX
  5
162
330
160
100
AcDbEntity
  8
Capa 1
 62
   250
370
     9
100
AcDbVertex
100
AcDb2dVertex
 10
151.0955900822406
 20
-160.6167611296843
 30
0.0
  0
VERTEX
  5
163
330
160
100
AcDbEntity
  8
Capa 1
 62
   250
370
     9
100
AcDbVertex
100
AcDb2dVertex
 10
151.0955900822406
 20
-163.0274044197287
 30
0.0
  0
VERTEX
  5
164
330
160
100
AcDbEntity
  8
Capa 1
 62
   250
370
     9
100
AcDbVertex
100
AcDb2dVertex
 10
149.743277992702
 20
-163.0274044197287
 30
0.0
  0
VERTEX
  5
165
330
160
100
AcDbEntity
  8
Capa 1
 62
   250
370
     9
100
AcDbVertex
100
AcDb2dVertex
 10
149.3684523591899
 20
-163.4022300532415
 30
0.0
  0
VERTEX
  5
166
330
160
100
AcDbEntity
  8
Capa 1
 62
   250
370
     9
100
AcDbVertex
100
AcDb2dVertex
 10
149.3684523591899
 20
-166.2611941990577
 30
0.0
  0
VERTEX
  5
167
330
160
100
AcDbEntity
  8
Capa 1
 62
   250
370
     9
100
AcDbVertex
100
AcDb2dVertex
 10
150.566424481988
 20
-166.2611941990577
 30
0.0
  0
VERTEX
  5
168
330
160
100
AcDbEntity
  8
Capa 1
 62
   250
370
     9
100
AcDbVertex
100
AcDb2dVertex
 10
150.566424481988
 20
-170.3181304676696
 30
0.0
  0
VERTEX
  5
169
330
160
100
AcDbEntity
  8
Capa 1
 62
   250
370
     9
100
AcDbVertex
100
AcDb2dVertex
 10
147.7736060362032
 20
-170.3181304676696
 30
0.0
  0
SEQEND
  5
16A
330
160
100
AcDbEntity
  8
Capa 1
 62
   250
370
     9
  0
POLYLINE
  5
16B
330
1F
100
AcDbEntity
  8
Capa 1
 62
   250
370
     9
100
AcDb2dPolyline
 66
     1
 10
0.0
 20
0.0
 30
0.0
  0
VERTEX
  5
16C
330
16B
100
AcDbEntity
  8
Capa 1
 62
   250
370
     9
100
AcDbVertex
100
AcDb2dVertex
 10
163.8165018941679
 20
-160.6167611297587
 30
0.0
  0
VERTEX
  5
16D
330
16B
100
AcDbEntity
  8
Capa 1
 62
   250
370
     9
100
AcDbVertex
100
AcDb2dVertex
 10
160.494517848133
 20
-160.6167611296098
 30
0.0
  0
VERTEX
  5
16E
330
16B
100
AcDbEntity
  8
Capa 1
 62
   250
370
     9
100
AcDbVertex
100
AcDb2dVertex
 10
160.4945178480239
 20
-163.0274044196542
 30
0.0
  0
VERTEX
  5
16F
330
16B
100
AcDbEntity
  8
Capa 1
 62
   250
370
     9
100
AcDbVertex
100
AcDb2dVertex
 10
161.8468299375625
 20
-163.0274044197145
 30
0.0
  0
VERTEX
  5
170
330
16B
100
AcDbEntity
  8
Capa 1
 62
   250
370
     9
100
AcDbVertex
100
AcDb2dVertex
 10
162.2216555710574
 20
-163.4022300532447
 30
0.0
  0
VERTEX
  5
171
330
16B
100
AcDbEntity
  8
Capa 1
 62
   250
370
     9
100
AcDbVertex
100
AcDb2dVertex
 10
162.2216555709303
 20
-166.261194199061
 30
0.0
  0
VERTEX
  5
172
330
16B
100
AcDbEntity
  8
Capa 1
 62
   250
370
     9
100
AcDbVertex
100
AcDb2dVertex
 10
161.0236834481321
 20
-166.261194199007
 30
0.0
  0
VERTEX
  5
173
330
16B
100
AcDbEntity
  8
Capa 1
 62
   250
370
     9
100
AcDbVertex
100
AcDb2dVertex
 10
161.0236834479486
 20
-170.3181304676189
 30
0.0
  0
VERTEX
  5
174
330
16B
100
AcDbEntity
  8
Capa 1
 62
   250
370
     9
100
AcDbVertex
100
AcDb2dVertex
 10
163.8165018937334
 20
-170.318130467744
 30
0.0
  0
SEQEND
  5
175
330
16B
100
AcDbEntity
  8
Capa 1
 62
   250
370
     9
  0
POLYLINE
  5
176
330
1F
100
AcDbEntity
  8
Capa 1
 62
   250
370
     9
100
AcDb2dPolyline
 66
     1
 10
0.0
 20
0.0
 30
0.0
  0
VERTEX
  5
177
330
176
100
AcDbEntity
  8
Capa 1
 62
   250
370
     9
100
AcDbVertex
100
AcDb2dVertex
 10
155.8091975604942
 20
-163.3482852377619
 30
0.0
  0
VERTEX
  5
178
330
176
100
AcDbEntity
  8
Capa 1
 62
   250
370
     9
100
AcDbVertex
100
AcDb2dVertex
 10
161.5499858083776
 20
-163.3482852380199
 30
0.0
  0
VERTEX
  5
179
330
176
100
AcDbEntity
  8
Capa 1
 62
   250
370
     9
100
AcDbVertex
100
AcDb2dVertex
 10
161.9119826746667
 20
-163.710282104341
 30
0.0
  0
VERTEX
  5
17A
330
176
100
AcDbEntity
  8
Capa 1
 62
   250
370
     9
100
AcDbVertex
100
AcDb2dVertex
 10
161.9119826745647
 20
-165.9674390354203
 30
0.0
  0
VERTEX
  5
17B
330
176
100
AcDbEntity
  8
Capa 1
 62
   250
370
     9
100
AcDbVertex
100
AcDb2dVertex
 10
155.8091973008955
 20
-165.9674390351463
 30
0.0
  0
VERTEX
  5
17C
330
176
100
AcDbEntity
  8
Capa 1
 62
   250
370
     9
100
AcDbVertex
100
AcDb2dVertex
 10
155.7809107606382
 20
-165.967439035283
 30
0.0
  0
VERTEX
  5
17D
330
176
100
AcDbEntity
  8
Capa 1
 62
   250
370
     9
100
AcDbVertex
100
AcDb2dVertex
 10
149.6781253869652
 20
-165.967439035283
 30
0.0
  0
VERTEX
  5
17E
330
176
100
AcDbEntity
  8
Capa 1
 62
   250
370
     9
100
AcDbVertex
100
AcDb2dVertex
 10
149.6781253869652
 20
-163.7102821042037
 30
0.0
  0
VERTEX
  5
17F
330
176
100
AcDbEntity
  8
Capa 1
 62
   250
370
     9
100
AcDbVertex
100
AcDb2dVertex
 10
150.0401222532722
 20
-163.3482852378986
 30
0.0
  0
VERTEX
  5
180
330
176
100
AcDbEntity
  8
Capa 1
 62
   250
370
     9
100
AcDbVertex
100
AcDb2dVertex
 10
155.7809105011525
 20
-163.3482852378986
 30
0.0
  0
SEQEND
  5
181
330
176
100
AcDbEntity
  8
Capa 1
 62
   250
370
     9
  0
INSERT
  5
183
330
1F
100
AcDbEntity
  8
Capa 1
100
AcDbBlockReference
  2
block 2
 10
0.0
 20
0.0
 30
0.0
  0
SPLINE
  5
18E
330
1F
100
AcDbEntity
  8
Capa 1
 62
   250
370
     9
100
AcDbSpline
210
0.0
220
0.0
230
1.0
 70
    11
 71
     3
 72
    29
 73
    25
 74
     0
 42
0.0000000001
 43
0.0000000001
 12
1.0
 22
0.0
 32
0.0
 13
1.0
 23
0.0
 33
0.0
 40
0.0
 40
0.0
 40
0.0
 40
0.0
 40
1.0
 40
1.0
 40
1.0
 40
2.0
 40
2.0
 40
2.0
 40
3.0
 40
3.0
 40
3.0
 40
4.0
 40
4.0
 40
4.0
 40
5.0
 40
5.0
 40
5.0
 40
6.0
 40
6.0
 40
6.0
 40
7.0
 40
7.0
 40
7.0
 40
8.0
 40
8.0
 40
8.0
 40
8.0
 10
88.095481145725
 20
-111.5660497950511
 30
0.0
 10
88.095481145725
 20
-111.5660497950511
 30
0.0
 10
88.0954800285982
 20
-111.5660497950511
 30
0.0
 10
88.0954800285982
 20
-111.5660497950511
 30
0.0
 10
87.7882703067716
 20
-111.5660497950511
 30
0.0
 10
87.53691689800483
 20
-111.3146963862843
 30
0.0
 10
87.53691689800483
 20
-111.007486664458
 30
0.0
 10
87.53691689800483
 20
-111.007486664458
 30
0.0
 10
87.53691689800483
 20
-102.3350493209476
 30
0.0
 10
87.53691689800483
 20
-102.3350493209476
 30
0.0
 10
87.53691689800483
 20
-102.0278395991213
 30
0.0
 10
87.7882703067716
 20
-101.7764861903546
 30
0.0
 10
88.0954800285982
 20
-101.7764861903546
 30
0.0
 10
88.0954800285982
 20
-101.7764861903546
 30
0.0
 10
88.095481145725
 20
-101.7764861903546
 30
0.0
 10
88.095481145725
 20
-101.7764861903546
 30
0.0
 10
88.40269086755161
 20
-101.7764861903546
 30
0.0
 10
88.65404427631837
 20
-102.0278395991213
 30
0.0
 10
88.65404427631837
 20
-102.3350493209476
 30
0.0
 10
88.65404427631837
 20
-102.3350493209476
 30
0.0
 10
88.65404427631837
 20
-111.007486664458
 30
0.0
 10
88.65404427631837
 20
-111.007486664458
 30
0.0
 10
88.65404427631837
 20
-111.3146963862843
 30
0.0
 10
88.40269086755161
 20
-111.5660497950511
 30
0.0
 10
88.095481145725
 20
-111.5660497950511
 30
0.0
  0
POLYLINE
  5
18F
330
1F
100
AcDbEntity
  8
Capa 1
 62
   250
370
     9
100
AcDb2dPolyline
 66
     1
 10
0.0
 20
0.0
 30
0.0
  0
VERTEX
  5
190
330
18F
100
AcDbEntity
  8
Capa 1
 62
   250
370
     9
100
AcDbVertex
100
AcDb2dVertex
 10
89.53820268174174
 20
-101.2914177234561
 30
0.0
  0
VERTEX
  5
191
330
18F
100
AcDbEntity
  8
Capa 1
 62
   250
370
     9
100
AcDbVertex
100
AcDb2dVertex
 10
73.63162084689169
 20
-101.2914177234561
 30
0.0
  0
VERTEX
  5
192
330
18F
100
AcDbEntity
  8
Capa 1
 62
   250
370
     9
100
AcDbVertex
100
AcDb2dVertex
 10
63.63627061987626
 20
-107.3180259485687
 30
0.0
  0
VERTEX
  5
193
330
18F
100
AcDbEntity
  8
Capa 1
 62
   250
370
     9
100
AcDbVertex
100
AcDb2dVertex
 10
63.63627061987626
 20
-112.0511182619498
 30
0.0
  0
VERTEX
  5
194
330
18F
100
AcDbEntity
  8
Capa 1
 62
   250
370
     9
100
AcDbVertex
100
AcDb2dVertex
 10
89.53820268174174
 20
-112.0511182619498
 30
0.0
  0
SEQEND
  5
195
330
18F
100
AcDbEntity
  8
Capa 1
 62
   250
370
     9
  0
POLYLINE
  5
196
330
1F
100
AcDbEntity
  8
Capa 1
 62
   250
370
     9
100
AcDb2dPolyline
 66
     1
 10
0.0
 20
0.0
 30
0.0
  0
VERTEX
  5
197
330
196
100
AcDbEntity
  8
Capa 1
 62
   250
370
     9
100
AcDbVertex
100
AcDb2dVertex
 10
64.78114487670597
 20
-128.2200671585923
 30
0.0
  0
VERTEX
  5
198
330
196
100
AcDbEntity
  8
Capa 1
 62
   250
370
     9
100
AcDbVertex
100
AcDb2dVertex
 10
64.78114487670597
 20
-129.9839524927735
 30
0.0
  0
VERTEX
  5
199
330
196
100
AcDbEntity
  8
Capa 1
 62
   250
370
     9
100
AcDbVertex
100
AcDb2dVertex
 10
63.69506679768267
 20
-129.9839524927735
 30
0.0
  0
VERTEX
  5
19A
330
196
100
AcDbEntity
  8
Capa 1
 62
   250
370
     9
100
AcDbVertex
100
AcDb2dVertex
 10
63.69506679768267
 20
-112.9918571068461
 30
0.0
  0
VERTEX
  5
19B
330
196
100
AcDbEntity
  8
Capa 1
 62
   250
370
     9
100
AcDbVertex
100
AcDb2dVertex
 10
89.53820268174174
 20
-112.9918571068461
 30
0.0
  0
VERTEX
  5
19C
330
196
100
AcDbEntity
  8
Capa 1
 62
   250
370
     9
100
AcDbVertex
100
AcDb2dVertex
 10
89.53820268174174
 20
-116.9018029309434
 30
0.0
  0
VERTEX
  5
19D
330
196
100
AcDbEntity
  8
Capa 1
 62
   250
370
     9
100
AcDbVertex
100
AcDb2dVertex
 10
79.86401569432546
 20
-116.9018029309434
 30
0.0
  0
VERTEX
  5
19E
330
196
100
AcDbEntity
  8
Capa 1
 62
   250
370
     9
100
AcDbVertex
100
AcDb2dVertex
 10
79.86401569432546
 20
-129.9839524927735
 30
0.0
  0
VERTEX
  5
19F
330
196
100
AcDbEntity
  8
Capa 1
 62
   250
370
     9
100
AcDbVertex
100
AcDb2dVertex
 10
74.68830083700664
 20
-129.9839524927735
 30
0.0
  0
VERTEX
  5
1A0
330
196
100
AcDbEntity
  8
Capa 1
 62
   250
370
     9
100
AcDbVertex
100
AcDb2dVertex
 10
74.68830083700664
 20
-128.2200671585923
 30
0.0
  0
VERTEX
  5
1A1
330
196
100
AcDbEntity
  8
Capa 1
 62
   250
370
     9
100
AcDbVertex
100
AcDb2dVertex
 10
64.78114487670597
 20
-128.2200671585923
 30
0.0
  0
SEQEND
  5
1A2
330
196
100
AcDbEntity
  8
Capa 1
 62
   250
370
     9
  0
POLYLINE
  5
1A3
330
1F
100
AcDbEntity
  8
Capa 1
 62
   250
370
     9
100
AcDb2dPolyline
 66
     1
 10
0.0
 20
0.0
 30
0.0
  0
VERTEX
  5
1A4
330
1A3
100
AcDbEntity
  8
Capa 1
 62
   250
370
     9
100
AcDbVertex
100
AcDb2dVertex
 10
64.22435374168226
 20
-112.0511182619498
 30
0.0
  0
VERTEX
  5
1A5
330
1A3
100
AcDbEntity
  8
Capa 1
 62
   250
370
     9
100
AcDbVertex
100
AcDb2dVertex
 10
64.22435374168226
 20
-112.9918571068461
 30
0.0
  0
SEQEND
  5
1A6
330
1A3
100
AcDbEntity
  8
Capa 1
 62
   250
370
     9
  0
POLYLINE
  5
1A7
330
1F
100
AcDbEntity
  8
Capa 1
 62
   250
370
     9
100
AcDb2dPolyline
 66
     1
 10
0.0
 20
0.0
 30
0.0
  0
VERTEX
  5
1A8
330
1A7
100
AcDbEntity
  8
Capa 1
 62
   250
370
     9
100
AcDbVertex
100
AcDb2dVertex
 10
128.2514599395845
 20
-112.0511182619498
 30
0.0
  0
VERTEX
  5
1A9
330
1A7
100
AcDbEntity
  8
Capa 1
 62
   250
370
     9
100
AcDbVertex
100
AcDb2dVertex
 10
128.2514599395845
 20
-112.9918571068461
 30
0.0
  0
SEQEND
  5
1AA
330
1A7
100
AcDbEntity
  8
Capa 1
 62
   250
370
     9
  0
INSERT
  5
1AC
330
1F
100
AcDbEntity
  8
Capa 1
100
AcDbBlockReference
  2
block 4
 10
0.0
 20
0.0
 30
0.0
  0
POLYLINE
  5
1B7
330
1F
100
AcDbEntity
  8
Capa 1
 62
   250
370
     9
100
AcDb2dPolyline
 66
     1
 10
0.0
 20
0.0
 30
0.0
  0
VERTEX
  5
1B8
330
1B7
100
AcDbEntity
  8
Capa 1
 62
   250
370
     9
100
AcDbVertex
100
AcDb2dVertex
 10
63.69506679768267
 20
-143.6372036328741
 30
0.0
  0
VERTEX
  5
1B9
330
1B7
100
AcDbEntity
  8
Capa 1
 62
   250
370
     9
100
AcDbVertex
100
AcDb2dVertex
 10
63.69506679768267
 20
-160.3815764184612
 30
0.0
  0
VERTEX
  5
1BA
330
1B7
100
AcDbEntity
  8
Capa 1
 62
   250
370
     9
100
AcDbVertex
100
AcDb2dVertex
 10
80.06980231664662
 20
-160.3815764184612
 30
0.0
  0
VERTEX
  5
1BB
330
1B7
100
AcDbEntity
  8
Capa 1
 62
   250
370
     9
100
AcDbVertex
100
AcDb2dVertex
 10
80.06980231664662
 20
-143.6372036328741
 30
0.0
  0
VERTEX
  5
1BC
330
1B7
100
AcDbEntity
  8
Capa 1
 62
   250
370
     9
100
AcDbVertex
100
AcDb2dVertex
 10
74.68830083698546
 20
-143.6372036328741
 30
0.0
  0
VERTEX
  5
1BD
330
1B7
100
AcDbEntity
  8
Capa 1
 62
   250
370
     9
100
AcDbVertex
100
AcDb2dVertex
 10
74.68830083698546
 20
-146.6290937702361
 30
0.0
  0
VERTEX
  5
1BE
330
1B7
100
AcDbEntity
  8
Capa 1
 62
   250
370
     9
100
AcDbVertex
100
AcDb2dVertex
 10
64.81219417599621
 20
-146.6290937702361
 30
0.0
  0
VERTEX
  5
1BF
330
1B7
100
AcDbEntity
  8
Capa 1
 62
   250
370
     9
100
AcDbVertex
100
AcDb2dVertex
 10
64.81219417599621
 20
-143.6372036328741
 30
0.0
  0
VERTEX
  5
1C0
330
1B7
100
AcDbEntity
  8
Capa 1
 62
   250
370
     9
100
AcDbVertex
100
AcDb2dVertex
 10
63.69506679768267
 20
-143.6372036328741
 30
0.0
  0
SEQEND
  5
1C1
330
1B7
100
AcDbEntity
  8
Capa 1
 62
   250
370
     9
  0
POLYLINE
  5
1C2
330
1F
100
AcDbEntity
  8
Capa 1
 62
   250
370
     9
100
AcDb2dPolyline
 66
     1
 10
0.0
 20
0.0
 30
0.0
  0
VERTEX
  5
1C3
330
1C2
100
AcDbEntity
  8
Capa 1
 62
   250
370
     9
100
AcDbVertex
100
AcDb2dVertex
 10
78.54110169369203
 20
-161.6162961523863
 30
0.0
  0
VERTEX
  5
1C4
330
1C2
100
AcDbEntity
  8
Capa 1
 62
   250
370
     9
100
AcDbVertex
100
AcDb2dVertex
 10
65.01798079831802
 20
-161.6162961523863
 30
0.0
  0
VERTEX
  5
1C5
330
1C2
100
AcDbEntity
  8
Capa 1
 62
   250
370
     9
100
AcDbVertex
100
AcDb2dVertex
 10
65.01798079831802
 20
-160.3815764184612
 30
0.0
  0
VERTEX
  5
1C6
330
1C2
100
AcDbEntity
  8
Capa 1
 62
   250
370
     9
100
AcDbVertex
100
AcDb2dVertex
 10
78.54110169369203
 20
-160.3815764184612
 30
0.0
  0
VERTEX
  5
1C7
330
1C2
100
AcDbEntity
  8
Capa 1
 62
   250
370
     9
100
AcDbVertex
100
AcDb2dVertex
 10
78.54110169369203
 20
-161.6162961523863
 30
0.0
  0
SEQEND
  5
1C8
330
1C2
100
AcDbEntity
  8
Capa 1
 62
   250
370
     9
  0
POLYLINE
  5
1C9
330
1F
100
AcDbEntity
  8
Capa 1
 62
   250
370
     9
100
AcDb2dPolyline
 66
     1
 10
0.0
 20
0.0
 30
0.0
  0
VERTEX
  5
1CA
330
1C9
100
AcDbEntity
  8
Capa 1
 62
   250
370
     9
100
AcDbVertex
100
AcDb2dVertex
 10
127.9400269434788
 20
-128.2200671588833
 30
0.0
  0
VERTEX
  5
1CB
330
1C9
100
AcDbEntity
  8
Capa 1
 62
   250
370
     9
100
AcDbVertex
100
AcDb2dVertex
 10
127.9400269433999
 20
-129.9839524930645
 30
0.0
  0
VERTEX
  5
1CC
330
1C9
100
AcDbEntity
  8
Capa 1
 62
   250
370
     9
100
AcDbVertex
100
AcDb2dVertex
 10
129.0261050224238
 20
-129.9839524931133
 30
0.0
  0
VERTEX
  5
1CD
330
1C9
100
AcDbEntity
  8
Capa 1
 62
   250
370
     9
100
AcDbVertex
100
AcDb2dVertex
 10
129.0261050231855
 20
-112.9918571071858
 30
0.0
  0
VERTEX
  5
1CE
330
1C9
100
AcDbEntity
  8
Capa 1
 62
   250
370
     9
100
AcDbVertex
100
AcDb2dVertex
 10
103.1829691391271
 20
-112.991857106026
 30
0.0
  0
VERTEX
  5
1CF
330
1C9
100
AcDbEntity
  8
Capa 1
 62
   250
370
     9
100
AcDbVertex
100
AcDb2dVertex
 10
103.1829691389512
 20
-116.901802930123
 30
0.0
  0
VERTEX
  5
1D0
330
1C9
100
AcDbEntity
  8
Capa 1
 62
   250
370
     9
100
AcDbVertex
100
AcDb2dVertex
 10
112.8571561263675
 20
-116.9018029305571
 30
0.0
  0
VERTEX
  5
1D1
330
1C9
100
AcDbEntity
  8
Capa 1
 62
   250
370
     9
100
AcDbVertex
100
AcDb2dVertex
 10
112.8571561257804
 20
-129.9839524923872
 30
0.0
  0
VERTEX
  5
1D2
330
1C9
100
AcDbEntity
  8
Capa 1
 62
   250
370
     9
100
AcDbVertex
100
AcDb2dVertex
 10
118.0328709830992
 20
-129.9839524926198
 30
0.0
  0
VERTEX
  5
1D3
330
1C9
100
AcDbEntity
  8
Capa 1
 62
   250
370
     9
100
AcDbVertex
100
AcDb2dVertex
 10
118.0328709831781
 20
-128.2200671584386
 30
0.0
  0
VERTEX
  5
1D4
330
1C9
100
AcDbEntity
  8
Capa 1
 62
   250
370
     9
100
AcDbVertex
100
AcDb2dVertex
 10
127.9400269434788
 20
-128.2200671588833
 30
0.0
  0
SEQEND
  5
1D5
330
1C9
100
AcDbEntity
  8
Capa 1
 62
   250
370
     9
  0
INSERT
  5
1D7
330
1F
100
AcDbEntity
  8
Capa 1
100
AcDbBlockReference
  2
block 6
 10
0.0
 20
0.0
 30
0.0
  0
POLYLINE
  5
1E2
330
1F
100
AcDbEntity
  8
Capa 1
 62
   250
370
     9
100
AcDb2dPolyline
 66
     1
 10
0.0
 20
0.0
 30
0.0
  0
VERTEX
  5
1E3
330
1E2
100
AcDbEntity
  8
Capa 1
 62
   250
370
     9
100
AcDbVertex
100
AcDb2dVertex
 10
129.0261050218097
 20
-143.6372036332139
 30
0.0
  0
VERTEX
  5
1E4
330
1E2
100
AcDbEntity
  8
Capa 1
 62
   250
370
     9
100
AcDbVertex
100
AcDb2dVertex
 10
129.0261050210582
 20
-160.3815764188006
 30
0.0
  0
VERTEX
  5
1E5
330
1E2
100
AcDbEntity
  8
Capa 1
 62
   250
370
     9
100
AcDbVertex
100
AcDb2dVertex
 10
112.6513695020943
 20
-160.3815764180652
 30
0.0
  0
VERTEX
  5
1E6
330
1E2
100
AcDbEntity
  8
Capa 1
 62
   250
370
     9
100
AcDbVertex
100
AcDb2dVertex
 10
112.6513695028457
 20
-143.6372036324785
 30
0.0
  0
VERTEX
  5
1E7
330
1E2
100
AcDbEntity
  8
Capa 1
 62
   250
370
     9
100
AcDbVertex
100
AcDb2dVertex
 10
118.0328709825069
 20
-143.6372036327204
 30
0.0
  0
VERTEX
  5
1E8
330
1E2
100
AcDbEntity
  8
Capa 1
 62
   250
370
     9
100
AcDbVertex
100
AcDb2dVertex
 10
118.0328709823728
 20
-146.6290937700824
 30
0.0
  0
VERTEX
  5
1E9
330
1E2
100
AcDbEntity
  8
Capa 1
 62
   250
370
     9
100
AcDbVertex
100
AcDb2dVertex
 10
127.908977643362
 20
-146.6290937705259
 30
0.0
  0
VERTEX
  5
1EA
330
1E2
100
AcDbEntity
  8
Capa 1
 62
   250
370
     9
100
AcDbVertex
100
AcDb2dVertex
 10
127.9089776434961
 20
-143.6372036331638
 30
0.0
  0
VERTEX
  5
1EB
330
1E2
100
AcDbEntity
  8
Capa 1
 62
   250
370
     9
100
AcDbVertex
100
AcDb2dVertex
 10
129.0261050218097
 20
-143.6372036332139
 30
0.0
  0
SEQEND
  5
1EC
330
1E2
100
AcDbEntity
  8
Capa 1
 62
   250
370
     9
  0
POLYLINE
  5
1ED
330
1F
100
AcDbEntity
  8
Capa 1
 62
   250
370
     9
100
AcDb2dPolyline
 66
     1
 10
0.0
 20
0.0
 30
0.0
  0
VERTEX
  5
1EE
330
1ED
100
AcDbEntity
  8
Capa 1
 62
   250
370
     9
100
AcDbVertex
100
AcDb2dVertex
 10
114.1800701249931
 20
-161.616296152059
 30
0.0
  0
VERTEX
  5
1EF
330
1ED
100
AcDbEntity
  8
Capa 1
 62
   250
370
     9
100
AcDbVertex
100
AcDb2dVertex
 10
127.7031910203671
 20
-161.6162961526661
 30
0.0
  0
VERTEX
  5
1F0
330
1ED
100
AcDbEntity
  8
Capa 1
 62
   250
370
     9
100
AcDbVertex
100
AcDb2dVertex
 10
127.7031910204229
 20
-160.3815764187416
 30
0.0
  0
VERTEX
  5
1F1
330
1ED
100
AcDbEntity
  8
Capa 1
 62
   250
370
     9
100
AcDbVertex
100
AcDb2dVertex
 10
114.1800701250489
 20
-160.3815764181346
 30
0.0
  0
VERTEX
  5
1F2
330
1ED
100
AcDbEntity
  8
Capa 1
 62
   250
370
     9
100
AcDbVertex
100
AcDb2dVertex
 10
114.1800701249931
 20
-161.616296152059
 30
0.0
  0
SEQEND
  5
1F3
330
1ED
100
AcDbEntity
  8
Capa 1
 62
   250
370
     9
  0
INSERT
  5
1F5
330
1F
100
AcDbEntity
  8
Capa 1
100
AcDbBlockReference
  2
block 8
 10
0.0
 20
0.0
 30
0.0
  0
POLYLINE
  5
200
330
1F
100
AcDbEntity
  8
Capa 1
 62
   250
370
     9
100
AcDb2dPolyline
 66
     1
 10
0.0
 20
0.0
 30
0.0
  0
VERTEX
  5
201
330
200
100
AcDbEntity
  8
Capa 1
 62
   250
370
     9
100
AcDbVertex
100
AcDb2dVertex
 10
89.52971799885067
 20
-161.6162961523863
 30
0.0
  0
VERTEX
  5
202
330
200
100
AcDbEntity
  8
Capa 1
 62
   250
370
     9
100
AcDbVertex
100
AcDb2dVertex
 10
63.69506679768267
 20
-161.6162961523863
 30
0.0
  0
VERTEX
  5
203
330
200
100
AcDbEntity
  8
Capa 1
 62
   250
370
     9
100
AcDbVertex
100
AcDb2dVertex
 10
63.69506679768267
 20
-172.9933565578428
 30
0.0
  0
VERTEX
  5
204
330
200
100
AcDbEntity
  8
Capa 1
 62
   250
370
     9
100
AcDbVertex
100
AcDb2dVertex
 10
71.50025940142487
 20
-176.7857100263283
 30
0.0
  0
VERTEX
  5
205
330
200
100
AcDbEntity
  8
Capa 1
 62
   250
370
     9
100
AcDbVertex
100
AcDb2dVertex
 10
71.50025940142487
 20
-177.8881383601899
 30
0.0
  0
VERTEX
  5
206
330
200
100
AcDbEntity
  8
Capa 1
 62
   250
370
     9
100
AcDbVertex
100
AcDb2dVertex
 10
89.52971799885067
 20
-177.8881383601899
 30
0.0
  0
VERTEX
  5
207
330
200
100
AcDbEntity
  8
Capa 1
 62
   250
370
     9
100
AcDbVertex
100
AcDb2dVertex
 10
89.52971799916895
 20
-171.522993010673
 30
0.0
  0
VERTEX
  5
208
330
200
100
AcDbEntity
  8
Capa 1
 62
   250
370
     9
100
AcDbVertex
100
AcDb2dVertex
 10
90.71812486140597
 20
-171.5229930107269
 30
0.0
  0
VERTEX
  5
209
330
200
100
AcDbEntity
  8
Capa 1
 62
   250
370
     9
100
AcDbVertex
100
AcDb2dVertex
 10
90.71812486185131
 20
-161.6158370504198
 30
0.0
  0
VERTEX
  5
20A
330
200
100
AcDbEntity
  8
Capa 1
 62
   250
370
     9
100
AcDbVertex
100
AcDb2dVertex
 10
89.52971799885067
 20
-161.6162961523863
 30
0.0
  0
SEQEND
  5
20B
330
200
100
AcDbEntity
  8
Capa 1
 62
   250
370
     9
  0
SPLINE
  5
20C
330
1F
100
AcDbEntity
  8
Capa 1
 62
   250
370
     9
100
AcDbSpline
210
0.0
220
0.0
230
1.0
 70
    11
 71
     3
 72
    17
 73
    13
 74
     0
 42
0.0000000001
 43
0.0000000001
 12
1.0
 22
0.0
 32
0.0
 13
1.0
 23
0.0
 33
0.0
 40
0.0
 40
0.0
 40
0.0
 40
0.0
 40
1.0
 40
1.0
 40
1.0
 40
2.0
 40
2.0
 40
2.0
 40
3.0
 40
3.0
 40
3.0
 40
4.0
 40
4.0
 40
4.0
 40
4.0
 10
66.95825466591367
 20
-164.0857356202377
 30
0.0
 10
66.95825466591367
 20
-163.4281729151749
 30
0.0
 10
66.42519477040521
 20
-162.8951130196665
 30
0.0
 10
65.76763206534243
 20
-162.8951130196665
 30
0.0
 10
65.11006936027965
 20
-162.8951130196665
 30
0.0
 10
64.5770094647712
 20
-163.4281729151749
 30
0.0
 10
64.5770094647712
 20
-164.0857356202377
 30
0.0
 10
64.5770094647712
 20
-164.7432983253005
 30
0.0
 10
65.11006936027965
 20
-165.276358220809
 30
0.0
 10
65.76763206534243
 20
-165.276358220809
 30
0.0
 10
66.42519477040521
 20
-165.276358220809
 30
0.0
 10
66.95825466591367
 20
-164.7432983253005
 30
0.0
 10
66.95825466591367
 20
-164.0857356202377
 30
0.0
  0
SPLINE
  5
20D
330
1F
100
AcDbEntity
  8
Capa 1
 62
   250
370
     9
100
AcDbSpline
210
0.0
220
0.0
230
1.0
 70
    11
 71
     3
 72
    20
 73
    16
 74
     0
 42
0.0000000001
 43
0.0000000001
 12
1.0
 22
0.0
 32
0.0
 13
1.0
 23
0.0
 33
0.0
 40
0.0
 40
0.0
 40
0.0
 40
0.0
 40
1.0
 40
1.0
 40
1.0
 40
2.0
 40
2.0
 40
2.0
 40
3.0
 40
3.0
 40
3.0
 40
4.0
 40
4.0
 40
4.0
 40
5.0
 40
5.0
 40
5.0
 40
5.0
 10
63.88015761960389
 20
-107.1709764340272
 30
0.0
 10
63.88015761960389
 20
-107.1709764340272
 30
0.0
 10
63.88015761960389
 20
-102.1923152084441
 30
0.0
 10
63.88015761960389
 20
-102.1923152084441
 30
0.0
 10
63.88015761960389
 20
-102.1923152084441
 30
0.0
 10
63.71131818758953
 20
-100.7582249473288
 30
0.0
 10
65.31424788071911
 20
-100.7582249473288
 30
0.0
 10
65.31424788071911
 20
-100.7582249473288
 30
0.0
 10
71.4253285914608
 20
-100.7582249473288
 30
0.0
 10
71.4253285914608
 20
-100.7582249473288
 30
0.0
 10
71.4253285914608
 20
-100.7582249473288
 30
0.0
 10
73.20851210192166
 20
-101.5465274079235
 30
0.0
 10
73.20851210192166
 20
-101.5465274079235
 30
0.0
 10
73.20851210192166
 20
-101.5465274079235
 30
0.0
 10
63.88015761960389
 20
-107.1709764340272
 30
0.0
 10
63.88015761960389
 20
-107.1709764340272
 30
0.0
  0
SPLINE
  5
20E
330
1F
100
AcDbEntity
  8
Capa 1
 62
   250
370
     9
100
AcDbSpline
210
0.0
220
0.0
230
1.0
 70
    11
 71
     3
 72
    29
 73
    25
 74
     0
 42
0.0000000001
 43
0.0000000001
 12
1.0
 22
0.0
 32
0.0
 13
1.0
 23
0.0
 33
0.0
 40
0.0
 40
0.0
 40
0.0
 40
0.0
 40
1.0
 40
1.0
 40
1.0
 40
2.0
 40
2.0
 40
2.0
 40
3.0
 40
3.0
 40
3.0
 40
4.0
 40
4.0
 40
4.0
 40
5.0
 40
5.0
 40
5.0
 40
6.0
 40
6.0
 40
6.0
 40
7.0
 40
7.0
 40
7.0
 40
8.0
 40
8.0
 40
8.0
 40
8.0
 10
104.6341753592329
 20
-111.5660497956828
 30
0.0
 10
104.6341753592329
 20
-111.5660497956828
 30
0.0
 10
104.6341764763604
 20
-111.5660497956828
 30
0.0
 10
104.6341764763604
 20
-111.5660497956828
 30
0.0
 10
104.9413862024158
 20
-111.5660497950344
 30
0.0
 10
105.1927396145014
 20
-111.3146963822763
 30
0.0
 10
105.1927396143275
 20
-111.0074866562205
 30
0.0
 10
105.1927396143275
 20
-111.0074866562205
 30
0.0
 10
105.1927396094236
 20
-102.3350493232568
 30
0.0
 10
105.1927396094236
 20
-102.3350493232568
 30
0.0
 10
105.1927396092504
 20
-102.0278395997438
 30
0.0
 10
104.9413861989609
 20
-101.7764861896468
 30
0.0
 10
104.6341764754479
 20
-101.7764861897077
 30
0.0
 10
104.6341764754479
 20
-101.7764861897077
 30
0.0
 10
104.6341753583211
 20
-101.7764861897077
 30
0.0
 10
104.6341753583211
 20
-101.7764861897077
 30
0.0
 10
104.3269656392352
 20
-101.776486189769
 30
0.0
 10
104.0756122325462
 20
-102.0278395963434
 30
0.0
 10
104.0756122323447
 20
-102.3350493154287
 30
0.0
 10
104.0756122323447
 20
-102.3350493154287
 30
0.0
 10
104.0756122266535
 20
-111.0074866639164
 30
0.0
 10
104.0756122266535
 20
-111.0074866639164
 30
0.0
 10
104.075612226452
 20
-111.3146963870367
 30
0.0
 10
104.3269656361126
 20
-111.5660497963313
 30
0.0
 10
104.6341753592329
 20
-111.5660497956828
 30
0.0
  0
POLYLINE
  5
20F
330
1F
100
AcDbEntity
  8
Capa 1
 62
   250
370
     9
100
AcDb2dPolyline
 66
     1
 10
0.0
 20
0.0
 30
0.0
  0
VERTEX
  5
210
330
20F
100
AcDbEntity
  8
Capa 1
 62
   250
370
     9
100
AcDbVertex
100
AcDb2dVertex
 10
103.1914538223255
 20
-101.2914177228748
 30
0.0
  0
VERTEX
  5
211
330
20F
100
AcDbEntity
  8
Capa 1
 62
   250
370
     9
100
AcDbVertex
100
AcDb2dVertex
 10
119.0980356571756
 20
-101.291417723589
 30
0.0
  0
VERTEX
  5
212
330
20F
100
AcDbEntity
  8
Capa 1
 62
   250
370
     9
100
AcDbVertex
100
AcDb2dVertex
 10
129.0933858839183
 20
-107.3180259491501
 30
0.0
  0
VERTEX
  5
213
330
20F
100
AcDbEntity
  8
Capa 1
 62
   250
370
     9
100
AcDbVertex
100
AcDb2dVertex
 10
129.0933858837072
 20
-112.0511182625312
 30
0.0
  0
VERTEX
  5
214
330
20F
100
AcDbEntity
  8
Capa 1
 62
   250
370
     9
100
AcDbVertex
100
AcDb2dVertex
 10
103.1914538218423
 20
-112.0511182613684
 30
0.0
  0
SEQEND
  5
215
330
20F
100
AcDbEntity
  8
Capa 1
 62
   250
370
     9
  0
SPLINE
  5
216
330
1F
100
AcDbEntity
  8
Capa 1
 62
   250
370
     9
100
AcDbSpline
210
0.0
220
0.0
230
1.0
 70
    11
 71
     3
 72
    20
 73
    16
 74
     0
 42
0.0000000001
 43
0.0000000001
 12
1.0
 22
0.0
 32
0.0
 13
1.0
 23
0.0
 33
0.0
 40
0.0
 40
0.0
 40
0.0
 40
0.0
 40
1.0
 40
1.0
 40
1.0
 40
2.0
 40
2.0
 40
2.0
 40
3.0
 40
3.0
 40
3.0
 40
4.0
 40
4.0
 40
4.0
 40
5.0
 40
5.0
 40
5.0
 40
5.0
 10
128.8494988842002
 20
-107.1709764345976
 30
0.0
 10
128.8494988842002
 20
-107.1709764345976
 30
0.0
 10
128.8494988844229
 20
-102.1923152090145
 30
0.0
 10
128.8494988844229
 20
-102.1923152090145
 30
0.0
 10
128.8494988844229
 20
-102.1923152090145
 30
0.0
 10
129.0183383165027
 20
-100.758224947907
 30
0.0
 10
127.4154086233719
 20
-100.7582249478348
 30
0.0
 10
127.4154086233719
 20
-100.7582249478348
 30
0.0
 10
121.3043279126302
 20
-100.7582249475605
 30
0.0
 10
121.3043279126302
 20
-100.7582249475605
 30
0.0
 10
121.3043279126302
 20
-100.7582249475605
 30
0.0
 10
119.521144402134
 20
-101.5465274080753
 30
0.0
 10
119.521144402134
 20
-101.5465274080753
 30
0.0
 10
119.521144402134
 20
-101.5465274080753
 30
0.0
 10
128.8494988842002
 20
-107.1709764345976
 30
0.0
 10
128.8494988842002
 20
-107.1709764345976
 30
0.0
  0
SPLINE
  5
217
330
1F
100
AcDbEntity
  8
Capa 1
 62
   250
370
     9
100
AcDbSpline
210
0.0
220
0.0
230
1.0
 70
    11
 71
     3
 72
    29
 73
    25
 74
     0
 42
0.0000000001
 43
0.0000000001
 12
1.0
 22
0.0
 32
0.0
 13
1.0
 23
0.0
 33
0.0
 40
0.0
 40
0.0
 40
0.0
 40
0.0
 40
1.0
 40
1.0
 40
1.0
 40
2.0
 40
2.0
 40
2.0
 40
3.0
 40
3.0
 40
3.0
 40
4.0
 40
4.0
 40
4.0
 40
5.0
 40
5.0
 40
5.0
 40
6.0
 40
6.0
 40
6.0
 40
7.0
 40
7.0
 40
7.0
 40
8.0
 40
8.0
 40
8.0
 40
8.0
 10
80.30498560616303
 20
-182.4167739934214
 30
0.0
 10
80.30498560616303
 20
-182.4167739934214
 30
0.0
 10
71.8971350233239
 20
-182.4167739934214
 30
0.0
 10
71.8971350233239
 20
-182.4167739934214
 30
0.0
 10
71.50907946786522
 20
-182.4167739934214
 30
0.0
 10
71.19157946794472
 20
-182.0992739935009
 30
0.0
 10
71.19157946794472
 20
-181.7112184380422
 30
0.0
 10
71.19157946794472
 20
-181.7112184380422
 30
0.0
 10
71.19157946794472
 20
-178.5936939155691
 30
0.0
 10
71.19157946794472
 20
-178.5936939155691
 30
0.0
 10
71.19157946794472
 20
-178.2056383601104
 30
0.0
 10
71.50907946786522
 20
-177.8881383601899
 30
0.0
 10
71.8971350233239
 20
-177.8881383601899
 30
0.0
 10
71.8971350233239
 20
-177.8881383601899
 30
0.0
 10
80.30498560616303
 20
-177.8881383601899
 30
0.0
 10
80.30498560616303
 20
-177.8881383601899
 30
0.0
 10
80.69304116162171
 20
-177.8881383601899
 30
0.0
 10
81.01054116154219
 20
-178.2056383601104
 30
0.0
 10
81.01054116154219
 20
-178.5936939155691
 30
0.0
 10
81.01054116154219
 20
-178.5936939155691
 30
0.0
 10
81.01054116154219
 20
-181.7112184380422
 30
0.0
 10
81.01054116154219
 20
-181.7112184380422
 30
0.0
 10
81.01054116154219
 20
-182.0992739935009
 30
0.0
 10
80.69304116162171
 20
-182.4167739934214
 30
0.0
 10
80.30498560616303
 20
-182.4167739934214
 30
0.0
  0
POLYLINE
  5
218
330
1F
100
AcDbEntity
  8
Capa 1
 62
   250
370
     9
100
AcDb2dPolyline
 66
     1
 10
0.0
 20
0.0
 30
0.0
  0
VERTEX
  5
219
330
218
100
AcDbEntity
  8
Capa 1
 62
   250
370
     9
100
AcDbVertex
100
AcDb2dVertex
 10
103.1927093282228
 20
-161.6162961518325
 30
0.0
  0
VERTEX
  5
21A
330
218
100
AcDbEntity
  8
Capa 1
 62
   250
370
     9
100
AcDbVertex
100
AcDb2dVertex
 10
129.0273605293914
 20
-161.6162961529927
 30
0.0
  0
VERTEX
  5
21B
330
218
100
AcDbEntity
  8
Capa 1
 62
   250
370
     9
100
AcDbVertex
100
AcDb2dVertex
 10
129.02736052888
 20
-172.9933565584492
 30
0.0
  0
VERTEX
  5
21C
330
218
100
AcDbEntity
  8
Capa 1
 62
   250
370
     9
100
AcDbVertex
100
AcDb2dVertex
 10
121.2221679249677
 20
-176.7857100265844
 30
0.0
  0
VERTEX
  5
21D
330
218
100
AcDbEntity
  8
Capa 1
 62
   250
370
     9
100
AcDbVertex
100
AcDb2dVertex
 10
121.2221679249183
 20
-177.888138360446
 30
0.0
  0
VERTEX
  5
21E
330
218
100
AcDbEntity
  8
Capa 1
 62
   250
370
     9
100
AcDbVertex
100
AcDb2dVertex
 10
103.1927093274925
 20
-177.8881383596362
 30
0.0
  0
VERTEX
  5
21F
330
218
100
AcDbEntity
  8
Capa 1
 62
   250
370
     9
100
AcDbVertex
100
AcDb2dVertex
 10
103.1927093274598
 20
-171.5229930101192
 30
0.0
  0
VERTEX
  5
220
330
218
100
AcDbEntity
  8
Capa 1
 62
   250
370
     9
100
AcDbVertex
100
AcDb2dVertex
 10
102.0043024652228
 20
-171.5229930101198
 30
0.0
  0
VERTEX
  5
221
330
218
100
AcDbEntity
  8
Capa 1
 62
   250
370
     9
100
AcDbVertex
100
AcDb2dVertex
 10
102.0043024652228
 20
-161.6158370498128
 30
0.0
  0
VERTEX
  5
222
330
218
100
AcDbEntity
  8
Capa 1
 62
   250
370
     9
100
AcDbVertex
100
AcDb2dVertex
 10
103.1927093282228
 20
-161.6162961518325
 30
0.0
  0
SEQEND
  5
223
330
218
100
AcDbEntity
  8
Capa 1
 62
   250
370
     9
  0
SPLINE
  5
224
330
1F
100
AcDbEntity
  8
Capa 1
 62
   250
370
     9
100
AcDbSpline
210
0.0
220
0.0
230
1.0
 70
    11
 71
     3
 72
    29
 73
    25
 74
     0
 42
0.0000000001
 43
0.0000000001
 12
1.0
 22
0.0
 32
0.0
 13
1.0
 23
0.0
 33
0.0
 40
0.0
 40
0.0
 40
0.0
 40
0.0
 40
1.0
 40
1.0
 40
1.0
 40
2.0
 40
2.0
 40
2.0
 40
3.0
 40
3.0
 40
3.0
 40
4.0
 40
4.0
 40
4.0
 40
5.0
 40
5.0
 40
5.0
 40
6.0
 40
6.0
 40
6.0
 40
7.0
 40
7.0
 40
7.0
 40
8.0
 40
8.0
 40
8.0
 40
8.0
 10
112.4174417199768
 20
-182.4167739932815
 30
0.0
 10
112.4174417199768
 20
-182.4167739932815
 30
0.0
 10
120.8252923028159
 20
-182.4167739936595
 30
0.0
 10
120.8252923028159
 20
-182.4167739936595
 30
0.0
 10
121.2133478582746
 20
-182.4167739936768
 30
0.0
 10
121.5308478582092
 20
-182.0992739937704
 30
0.0
 10
121.5308478582265
 20
-181.7112184383118
 30
0.0
 10
121.5308478582265
 20
-181.7112184383118
 30
0.0
 10
121.530847858367
 20
-178.5936939158386
 30
0.0
 10
121.530847858367
 20
-178.5936939158386
 30
0.0
 10
121.5308478583843
 20
-178.20563836038
 30
0.0
 10
121.213347858478
 20
-177.8881383604453
 30
0.0
 10
120.8252923030193
 20
-177.888138360428
 30
0.0
 10
120.8252923030193
 20
-177.888138360428
 30
0.0
 10
112.4174417201802
 20
-177.88813836005
 30
0.0
 10
112.4174417201802
 20
-177.88813836005
 30
0.0
 10
112.0293861647215
 20
-177.8881383600327
 30
0.0
 10
111.7118861647869
 20
-178.2056383599391
 30
0.0
 10
111.7118861647696
 20
-178.5936939153978
 30
0.0
 10
111.7118861647696
 20
-178.5936939153978
 30
0.0
 10
111.711886164629
 20
-181.7112184378709
 30
0.0
 10
111.711886164629
 20
-181.7112184378709
 30
0.0
 10
111.7118861646117
 20
-182.0992739933296
 30
0.0
 10
112.0293861645181
 20
-182.4167739932642
 30
0.0
 10
112.4174417199768
 20
-182.4167739932815
 30
0.0
  0
POLYLINE
  5
225
330
1F
100
AcDbEntity
  8
Capa 1
 62
   250
370
     9
100
AcDb2dPolyline
 66
     1
 10
0.0
 20
0.0
 30
0.0
  0
VERTEX
  5
226
330
225
100
AcDbEntity
  8
Capa 1
 62
   250
370
     9
100
AcDbVertex
100
AcDb2dVertex
 10
128.4002604731577
 20
-163.6447642866928
 30
0.0
  0
VERTEX
  5
227
330
225
100
AcDbEntity
  8
Capa 1
 62
   250
370
     9
100
AcDbVertex
100
AcDb2dVertex
 10
127.8710948729031
 20
-163.6447642866928
 30
0.0
  0
VERTEX
  5
228
330
225
100
AcDbEntity
  8
Capa 1
 62
   250
370
     9
100
AcDbVertex
100
AcDb2dVertex
 10
127.8710948729031
 20
-162.3512483749613
 30
0.0
  0
VERTEX
  5
229
330
225
100
AcDbEntity
  8
Capa 1
 62
   250
370
     9
100
AcDbVertex
100
AcDb2dVertex
 10
128.4002604731577
 20
-162.3512483749613
 30
0.0
  0
VERTEX
  5
22A
330
225
100
AcDbEntity
  8
Capa 1
 62
   250
370
     9
100
AcDbVertex
100
AcDb2dVertex
 10
128.4002604731577
 20
-163.6447642866928
 30
0.0
  0
SEQEND
  5
22B
330
225
100
AcDbEntity
  8
Capa 1
 62
   250
370
     9
  0
POLYLINE
  5
22C
330
1F
100
AcDbEntity
  8
Capa 1
 62
   250
370
     9
100
AcDb2dPolyline
 66
     1
 10
0.0
 20
0.0
 30
0.0
  0
VERTEX
  5
22D
330
22C
100
AcDbEntity
  8
Capa 1
 62
   250
370
     9
100
AcDbVertex
100
AcDb2dVertex
 10
128.4002604731577
 20
-166.3787865546706
 30
0.0
  0
VERTEX
  5
22E
330
22C
100
AcDbEntity
  8
Capa 1
 62
   250
370
     9
100
AcDbVertex
100
AcDb2dVertex
 10
127.8710948729031
 20
-166.3787865546706
 30
0.0
  0
VERTEX
  5
22F
330
22C
100
AcDbEntity
  8
Capa 1
 62
   250
370
     9
100
AcDbVertex
100
AcDb2dVertex
 10
127.8710948729031
 20
-165.0852706429391
 30
0.0
  0
VERTEX
  5
230
330
22C
100
AcDbEntity
  8
Capa 1
 62
   250
370
     9
100
AcDbVertex
100
AcDb2dVertex
 10
128.4002604731577
 20
-165.0852706429391
 30
0.0
  0
VERTEX
  5
231
330
22C
100
AcDbEntity
  8
Capa 1
 62
   250
370
     9
100
AcDbVertex
100
AcDb2dVertex
 10
128.4002604731577
 20
-166.3787865546706
 30
0.0
  0
SEQEND
  5
232
330
22C
100
AcDbEntity
  8
Capa 1
 62
   250
370
     9
  0
POLYLINE
  5
233
330
1F
100
AcDbEntity
  8
Capa 1
 62
   250
370
     9
100
AcDb2dPolyline
 66
     1
 10
0.0
 20
0.0
 30
0.0
  0
VERTEX
  5
234
330
233
100
AcDbEntity
  8
Capa 1
 62
   250
370
     9
100
AcDbVertex
100
AcDb2dVertex
 10
128.4002604731577
 20
-169.1128088226483
 30
0.0
  0
VERTEX
  5
235
330
233
100
AcDbEntity
  8
Capa 1
 62
   250
370
     9
100
AcDbVertex
100
AcDb2dVertex
 10
127.8710948729031
 20
-169.1128088226483
 30
0.0
  0
VERTEX
  5
236
330
233
100
AcDbEntity
  8
Capa 1
 62
   250
370
     9
100
AcDbVertex
100
AcDb2dVertex
 10
127.8710948729031
 20
-167.8192929109168
 30
0.0
  0
VERTEX
  5
237
330
233
100
AcDbEntity
  8
Capa 1
 62
   250
370
     9
100
AcDbVertex
100
AcDb2dVertex
 10
128.4002604731577
 20
-167.8192929109168
 30
0.0
  0
VERTEX
  5
238
330
233
100
AcDbEntity
  8
Capa 1
 62
   250
370
     9
100
AcDbVertex
100
AcDb2dVertex
 10
128.4002604731577
 20
-169.1128088226483
 30
0.0
  0
SEQEND
  5
239
330
233
100
AcDbEntity
  8
Capa 1
 62
   250
370
     9
  0
POLYLINE
  5
23A
330
1F
100
AcDbEntity
  8
Capa 1
 62
   250
370
     9
100
AcDb2dPolyline
 66
     1
 10
0.0
 20
0.0
 30
0.0
  0
VERTEX
  5
23B
330
23A
100
AcDbEntity
  8
Capa 1
 62
   250
370
     9
100
AcDbVertex
100
AcDb2dVertex
 10
129.0261050213547
 20
-153.8027779179982
 30
0.0
  0
VERTEX
  5
23C
330
23A
100
AcDbEntity
  8
Capa 1
 62
   250
370
     9
100
AcDbVertex
100
AcDb2dVertex
 10
133.0451585198298
 20
-153.8027779179982
 30
0.0
  0
VERTEX
  5
23D
330
23A
100
AcDbEntity
  8
Capa 1
 62
   250
370
     9
100
AcDbVertex
100
AcDb2dVertex
 10
133.0451585198298
 20
-156.177649705334
 30
0.0
  0
VERTEX
  5
23E
330
23A
100
AcDbEntity
  8
Capa 1
 62
   250
370
     9
100
AcDbVertex
100
AcDb2dVertex
 10
130.6933114075905
 20
-157.1477866391321
 30
0.0
  0
VERTEX
  5
23F
330
23A
100
AcDbEntity
  8
Capa 1
 62
   250
370
     9
100
AcDbVertex
100
AcDb2dVertex
 10
130.6933114075905
 20
-159.4408375735656
 30
0.0
  0
VERTEX
  5
240
330
23A
100
AcDbEntity
  8
Capa 1
 62
   250
370
     9
100
AcDbVertex
100
AcDb2dVertex
 10
129.0273605293914
 20
-159.4408375735656
 30
0.0
  0
VERTEX
  5
241
330
23A
100
AcDbEntity
  8
Capa 1
 62
   250
370
     9
100
AcDbVertex
100
AcDb2dVertex
 10
129.0261050213547
 20
-153.8027779179982
 30
0.0
  0
SEQEND
  5
242
330
23A
100
AcDbEntity
  8
Capa 1
 62
   250
370
     9
  0
POLYLINE
  5
243
330
1F
100
AcDbEntity
  8
Capa 1
 62
   250
370
     9
100
AcDb2dPolyline
 66
     1
 10
0.0
 20
0.0
 30
0.0
  0
VERTEX
  5
244
330
243
100
AcDbEntity
  8
Capa 1
 62
   250
370
     9
100
AcDbVertex
100
AcDb2dVertex
 10
127.7031910203947
 20
-160.9989362854003
 30
0.0
  0
VERTEX
  5
245
330
243
100
AcDbEntity
  8
Capa 1
 62
   250
370
     9
100
AcDbVertex
100
AcDb2dVertex
 10
130.7227094964918
 20
-160.9989362854003
 30
0.0
  0
VERTEX
  5
246
330
243
100
AcDbEntity
  8
Capa 1
 62
   250
370
     9
100
AcDbVertex
100
AcDb2dVertex
 10
130.7227094964918
 20
-166.3787865546706
 30
0.0
  0
VERTEX
  5
247
330
243
100
AcDbEntity
  8
Capa 1
 62
   250
370
     9
100
AcDbVertex
100
AcDb2dVertex
 10
129.0273605293914
 20
-168.7600317558124
 30
0.0
  0
VERTEX
  5
248
330
243
100
AcDbEntity
  8
Capa 1
 62
   250
370
     9
100
AcDbVertex
100
AcDb2dVertex
 10
129.0273605293914
 20
-161.6162961529927
 30
0.0
  0
VERTEX
  5
249
330
243
100
AcDbEntity
  8
Capa 1
 62
   250
370
     9
100
AcDbVertex
100
AcDb2dVertex
 10
127.7031910203671
 20
-161.6162961526661
 30
0.0
  0
VERTEX
  5
24A
330
243
100
AcDbEntity
  8
Capa 1
 62
   250
370
     9
100
AcDbVertex
100
AcDb2dVertex
 10
127.7031910203947
 20
-160.9989362854003
 30
0.0
  0
SEQEND
  5
24B
330
243
100
AcDbEntity
  8
Capa 1
 62
   250
370
     9
  0
POLYLINE
  5
24C
330
1F
100
AcDbEntity
  8
Capa 1
 62
   250
370
     9
100
AcDb2dPolyline
 66
     1
 10
0.0
 20
0.0
 30
0.0
  0
VERTEX
  5
24D
330
24C
100
AcDbEntity
  8
Capa 1
 62
   250
370
     9
100
AcDbVertex
100
AcDb2dVertex
 10
90.71812486145987
 20
-170.318130467744
 30
0.0
  0
VERTEX
  5
24E
330
24C
100
AcDbEntity
  8
Capa 1
 62
   250
370
     9
100
AcDbVertex
100
AcDb2dVertex
 10
63.69506679768267
 20
-170.318130467744
 30
0.0
  0
VERTEX
  5
24F
330
24C
100
AcDbEntity
  8
Capa 1
 62
   250
370
     9
100
AcDbVertex
100
AcDb2dVertex
 10
63.69506679768267
 20
-169.7519877053052
 30
0.0
  0
VERTEX
  5
250
330
24C
100
AcDbEntity
  8
Capa 1
 62
   250
370
     9
100
AcDbVertex
100
AcDb2dVertex
 10
90.71812486145987
 20
-169.7519877053052
 30
0.0
  0
VERTEX
  5
251
330
24C
100
AcDbEntity
  8
Capa 1
 62
   250
370
     9
100
AcDbVertex
100
AcDb2dVertex
 10
90.71812486145987
 20
-170.318130467744
 30
0.0
  0
SEQEND
  5
252
330
24C
100
AcDbEntity
  8
Capa 1
 62
   250
370
     9
  0
POLYLINE
  5
253
330
1F
100
AcDbEntity
  8
Capa 1
 62
   250
370
     9
100
AcDb2dPolyline
 66
     1
 10
0.0
 20
0.0
 30
0.0
  0
VERTEX
  5
254
330
253
100
AcDbEntity
  8
Capa 1
 62
   250
370
     9
100
AcDbVertex
100
AcDb2dVertex
 10
129.0273605291938
 20
-170.318130467744
 30
0.0
  0
VERTEX
  5
255
330
253
100
AcDbEntity
  8
Capa 1
 62
   250
370
     9
100
AcDbVertex
100
AcDb2dVertex
 10
102.0043024654179
 20
-170.318130467744
 30
0.0
  0
VERTEX
  5
256
330
253
100
AcDbEntity
  8
Capa 1
 62
   250
370
     9
100
AcDbVertex
100
AcDb2dVertex
 10
102.0043024654179
 20
-169.7519877053052
 30
0.0
  0
VERTEX
  5
257
330
253
100
AcDbEntity
  8
Capa 1
 62
   250
370
     9
100
AcDbVertex
100
AcDb2dVertex
 10
129.0273605291938
 20
-169.7519877053052
 30
0.0
  0
VERTEX
  5
258
330
253
100
AcDbEntity
  8
Capa 1
 62
   250
370
     9
100
AcDbVertex
100
AcDb2dVertex
 10
129.0273605291938
 20
-170.318130467744
 30
0.0
  0
SEQEND
  5
259
330
253
100
AcDbEntity
  8
Capa 1
 62
   250
370
     9
  0
INSERT
  5
25B
330
1F
100
AcDbEntity
  8
Capa 1
100
AcDbBlockReference
  2
block 10
 10
0.0
 20
0.0
 30
0.0
  0
INSERT
  5
272
330
1F
100
AcDbEntity
  8
Capa 1
100
AcDbBlockReference
  2
block 12
 10
0.0
 20
0.0
 30
0.0
  0
POLYLINE
  5
288
330
1F
100
AcDbEntity
  8
Capa 1
 62
   250
370
     9
100
AcDb2dPolyline
 66
     1
 10
0.0
 20
0.0
 30
0.0
  0
VERTEX
  5
289
330
288
100
AcDbEntity
  8
Capa 1
 62
   250
370
     9
100
AcDbVertex
100
AcDb2dVertex
 10
147.7736060362032
 20
-146.7702612563785
 30
0.0
  0
VERTEX
  5
28A
330
288
100
AcDbEntity
  8
Capa 1
 62
   250
370
     9
100
AcDbVertex
100
AcDb2dVertex
 10
147.7736060362032
 20
-149.5885733573839
 30
0.0
  0
SEQEND
  5
28B
330
288
100
AcDbEntity
  8
Capa 1
 62
   250
370
     9
  0
POLYLINE
  5
28C
330
1F
100
AcDbEntity
  8
Capa 1
 62
   250
370
     9
100
AcDb2dPolyline
 66
     1
 10
0.0
 20
0.0
 30
0.0
  0
VERTEX
  5
28D
330
28C
100
AcDbEntity
  8
Capa 1
 62
   250
370
     9
100
AcDbVertex
100
AcDb2dVertex
 10
163.8165018955783
 20
-146.7702612563179
 30
0.0
  0
VERTEX
  5
28E
330
28C
100
AcDbEntity
  8
Capa 1
 62
   250
370
     9
100
AcDbVertex
100
AcDb2dVertex
 10
163.8165018955783
 20
-149.588573357323
 30
0.0
  0
SEQEND
  5
28F
330
28C
100
AcDbEntity
  8
Capa 1
 62
   250
370
     9
  0
INSERT
  5
291
330
1F
100
AcDbEntity
  8
Capa 1
100
AcDbBlockReference
  2
block 14
 10
0.0
 20
0.0
 30
0.0
  0
POLYLINE
  5
2F7
330
1F
100
AcDbEntity
  8
Capa 1
 62
   250
370
     9
100
AcDb2dPolyline
 66
     1
 10
0.0
 20
0.0
 30
0.0
  0
VERTEX
  5
2F8
330
2F7
100
AcDbEntity
  8
Capa 1
 62
   250
370
     9
100
AcDbVertex
100
AcDb2dVertex
 10
93.85750601214693
 20
-112.9918571068461
 30
0.0
  0
VERTEX
  5
2F9
330
2F7
100
AcDbEntity
  8
Capa 1
 62
   250
370
     9
100
AcDbVertex
100
AcDb2dVertex
 10
92.85797098944558
 20
-112.9918571068461
 30
0.0
  0
VERTEX
  5
2FA
330
2F7
100
AcDbEntity
  8
Capa 1
 62
   250
370
     9
100
AcDbVertex
100
AcDb2dVertex
 10
92.85797098944558
 20
-112.0511182619498
 30
0.0
  0
VERTEX
  5
2FB
330
2F7
100
AcDbEntity
  8
Capa 1
 62
   250
370
     9
100
AcDbVertex
100
AcDb2dVertex
 10
93.85750601214693
 20
-112.0511182619498
 30
0.0
  0
VERTEX
  5
2FC
330
2F7
100
AcDbEntity
  8
Capa 1
 62
   250
370
     9
100
AcDbVertex
100
AcDb2dVertex
 10
93.85750601214693
 20
-112.9918571068461
 30
0.0
  0
SEQEND
  5
2FD
330
2F7
100
AcDbEntity
  8
Capa 1
 62
   250
370
     9
  0
POLYLINE
  5
2FE
330
1F
100
AcDbEntity
  8
Capa 1
 62
   250
370
     9
100
AcDb2dPolyline
 66
     1
 10
0.0
 20
0.0
 30
0.0
  0
VERTEX
  5
2FF
330
2FE
100
AcDbEntity
  8
Capa 1
 62
   250
370
     9
100
AcDbVertex
100
AcDb2dVertex
 10
99.87168169703729
 20
-112.9918571068461
 30
0.0
  0
VERTEX
  5
300
330
2FE
100
AcDbEntity
  8
Capa 1
 62
   250
370
     9
100
AcDbVertex
100
AcDb2dVertex
 10
98.87214667433594
 20
-112.9918571068461
 30
0.0
  0
VERTEX
  5
301
330
2FE
100
AcDbEntity
  8
Capa 1
 62
   250
370
     9
100
AcDbVertex
100
AcDb2dVertex
 10
98.87214667433594
 20
-112.0511182619498
 30
0.0
  0
VERTEX
  5
302
330
2FE
100
AcDbEntity
  8
Capa 1
 62
   250
370
     9
100
AcDbVertex
100
AcDb2dVertex
 10
99.87168169703729
 20
-112.0511182619498
 30
0.0
  0
VERTEX
  5
303
330
2FE
100
AcDbEntity
  8
Capa 1
 62
   250
370
     9
100
AcDbVertex
100
AcDb2dVertex
 10
99.87168169703729
 20
-112.9918571068461
 30
0.0
  0
SEQEND
  5
304
330
2FE
100
AcDbEntity
  8
Capa 1
 62
   250
370
     9
  0
POLYLINE
  5
305
330
1F
100
AcDbEntity
  8
Capa 1
 62
   250
370
     9
100
AcDb2dPolyline
 66
     1
 10
0.0
 20
0.0
 30
0.0
  0
VERTEX
  5
306
330
305
100
AcDbEntity
  8
Capa 1
 62
   250
370
     9
100
AcDbVertex
100
AcDb2dVertex
 10
93.84901998315993
 20
-170.3181304677446
 30
0.0
  0
VERTEX
  5
307
330
305
100
AcDbEntity
  8
Capa 1
 62
   250
370
     9
100
AcDbVertex
100
AcDb2dVertex
 10
92.84949012365504
 20
-170.3181304677446
 30
0.0
  0
VERTEX
  5
308
330
305
100
AcDbEntity
  8
Capa 1
 62
   250
370
     9
100
AcDbVertex
100
AcDb2dVertex
 10
92.84949012365504
 20
-169.7519877051948
 30
0.0
  0
VERTEX
  5
309
330
305
100
AcDbEntity
  8
Capa 1
 62
   250
370
     9
100
AcDbVertex
100
AcDb2dVertex
 10
93.84901998315993
 20
-169.7519877051948
 30
0.0
  0
VERTEX
  5
30A
330
305
100
AcDbEntity
  8
Capa 1
 62
   250
370
     9
100
AcDbVertex
100
AcDb2dVertex
 10
93.84901998315993
 20
-170.3181304677446
 30
0.0
  0
SEQEND
  5
30B
330
305
100
AcDbEntity
  8
Capa 1
 62
   250
370
     9
  0
POLYLINE
  5
30C
330
1F
100
AcDbEntity
  8
Capa 1
 62
   250
370
     9
100
AcDb2dPolyline
 66
     1
 10
0.0
 20
0.0
 30
0.0
  0
VERTEX
  5
30D
330
30C
100
AcDbEntity
  8
Capa 1
 62
   250
370
     9
100
AcDbVertex
100
AcDb2dVertex
 10
99.8632008312474
 20
-170.3181304677446
 30
0.0
  0
VERTEX
  5
30E
330
30C
100
AcDbEntity
  8
Capa 1
 62
   250
370
     9
100
AcDbVertex
100
AcDb2dVertex
 10
98.86367097174251
 20
-170.3181304677446
 30
0.0
  0
VERTEX
  5
30F
330
30C
100
AcDbEntity
  8
Capa 1
 62
   250
370
     9
100
AcDbVertex
100
AcDb2dVertex
 10
98.86367097174251
 20
-169.7519877051948
 30
0.0
  0
VERTEX
  5
310
330
30C
100
AcDbEntity
  8
Capa 1
 62
   250
370
     9
100
AcDbVertex
100
AcDb2dVertex
 10
99.8632008312474
 20
-169.7519877051948
 30
0.0
  0
VERTEX
  5
311
330
30C
100
AcDbEntity
  8
Capa 1
 62
   250
370
     9
100
AcDbVertex
100
AcDb2dVertex
 10
99.8632008312474
 20
-170.3181304677446
 30
0.0
  0
SEQEND
  5
312
330
30C
100
AcDbEntity
  8
Capa 1
 62
   250
370
     9
  0
INSERT
  5
314
330
1F
100
AcDbEntity
  8
Capa 1
100
AcDbBlockReference
  2
block 15
 10
0.0
 20
0.0
 30
0.0
  0
POLYLINE
  5
319
330
1F
100
AcDbEntity
  8
Capa 1
 62
   250
370
     9
100
AcDb2dPolyline
 66
     1
 10
0.0
 20
0.0
 30
0.0
  0
VERTEX
  5
31A
330
319
100
AcDbEntity
  8
Capa 1
 62
   250
370
     9
100
AcDbVertex
100
AcDb2dVertex
 10
63.78327385945467
 20
-174.1399019289615
 30
0.0
  0
VERTEX
  5
31B
330
319
100
AcDbEntity
  8
Capa 1
 62
   250
370
     9
100
AcDbVertex
100
AcDb2dVertex
 10
63.78327385945467
 20
-201.8916978533819
 30
0.0
  0
SEQEND
  5
31C
330
319
100
AcDbEntity
  8
Capa 1
 62
   250
370
     9
  0
POLYLINE
  5
31D
330
1F
100
AcDbEntity
  8
Capa 1
 62
   250
370
     9
100
AcDb2dPolyline
 66
     1
 10
0.0
 20
0.0
 30
0.0
  0
VERTEX
  5
31E
330
31D
100
AcDbEntity
  8
Capa 1
 62
   250
370
     9
100
AcDbVertex
100
AcDb2dVertex
 10
129.0261050213547
 20
-174.1399019289615
 30
0.0
  0
VERTEX
  5
31F
330
31D
100
AcDbEntity
  8
Capa 1
 62
   250
370
     9
100
AcDbVertex
100
AcDb2dVertex
 10
129.0261050213547
 20
-201.8916978533819
 30
0.0
  0
SEQEND
  5
320
330
31D
100
AcDbEntity
  8
Capa 1
 62
   250
370
     9
  0
POLYLINE
  5
321
330
1F
100
AcDbEntity
  8
Capa 1
 62
   250
370
     9
100
AcDb2dPolyline
 66
     1
 10
0.0
 20
0.0
 30
0.0
  0
VERTEX
  5
322
330
321
100
AcDbEntity
  8
Capa 1
 62
   250
370
     9
100
AcDbVertex
100
AcDb2dVertex
 10
63.78327385945467
 20
-201.0685513640979
 30
0.0
  0
VERTEX
  5
323
330
321
100
AcDbEntity
  8
Capa 1
 62
   250
370
     9
100
AcDbVertex
100
AcDb2dVertex
 10
129.0261050213547
 20
-201.0685513640979
 30
0.0
  0
SEQEND
  5
324
330
321
100
AcDbEntity
  8
Capa 1
 62
   250
370
     9
  0
INSERT
  5
326
330
1F
100
AcDbEntity
  8
Capa 1
100
AcDbBlockReference
  2
block 16
 10
0.0
 20
0.0
 30
0.0
  0
MTEXT
  5
335
330
1F
100
AcDbEntity
  8
Capa 1
 62
   250
100
AcDbMText
 10
92.87320706906686
 20
-200.1570270104165
 30
0.0
 40
2.9971999992507
 41
0.0
 71
     7
 72
     1
  1
\fArial|b0|i0|c0|p34;\W1;120
 73
     1
 44
1.0
  0
MTEXT
  5
336
330
1F
100
AcDbEntity
  8
Capa 1
 62
   250
100
AcDbMText
 10
94.0062128467784
 20
-189.0151617796217
 30
0.0
 40
2.9971999992507
 41
0.0
 71
     7
 72
     1
  1
\fArial|b0|i0|c0|p34;\W1;60
 73
     1
 44
1.0
  0
POLYLINE
  5
337
330
1F
100
AcDbEntity
  8
Capa 1
 62
   250
370
     9
100
AcDb2dPolyline
 66
     1
 10
0.0
 20
0.0
 30
0.0
  0
VERTEX
  5
338
330
337
100
AcDbEntity
  8
Capa 1
 62
   250
370
     9
100
AcDbVertex
100
AcDb2dVertex
 10
147.7736337924761
 20
-183.78247353489
 30
0.0
  0
VERTEX
  5
339
330
337
100
AcDbEntity
  8
Capa 1
 62
   250
370
     9
100
AcDbVertex
100
AcDb2dVertex
 10
147.7736337924761
 20
-190.3674320844139
 30
0.0
  0
SEQEND
  5
33A
330
337
100
AcDbEntity
  8
Capa 1
 62
   250
370
     9
  0
POLYLINE
  5
33B
330
1F
100
AcDbEntity
  8
Capa 1
 62
   250
370
     9
100
AcDb2dPolyline
 66
     1
 10
0.0
 20
0.0
 30
0.0
  0
VERTEX
  5
33C
330
33B
100
AcDbEntity
  8
Capa 1
 62
   250
370
     9
100
AcDbVertex
100
AcDb2dVertex
 10
163.8164884910956
 20
-183.78247353489
 30
0.0
  0
VERTEX
  5
33D
330
33B
100
AcDbEntity
  8
Capa 1
 62
   250
370
     9
100
AcDbVertex
100
AcDb2dVertex
 10
163.8164884910956
 20
-190.3674320844139
 30
0.0
  0
SEQEND
  5
33E
330
33B
100
AcDbEntity
  8
Capa 1
 62
   250
370
     9
  0
POLYLINE
  5
33F
330
1F
100
AcDbEntity
  8
Capa 1
 62
   250
370
     9
100
AcDb2dPolyline
 66
     1
 10
0.0
 20
0.0
 30
0.0
  0
VERTEX
  5
340
330
33F
100
AcDbEntity
  8
Capa 1
 62
   250
370
     9
100
AcDbVertex
100
AcDb2dVertex
 10
145.3041615923761
 20
-188.3750971629359
 30
0.0
  0
VERTEX
  5
341
330
33F
100
AcDbEntity
  8
Capa 1
 62
   250
370
     9
100
AcDbVertex
100
AcDb2dVertex
 10
161.3470268776835
 20
-188.3750971629359
 30
0.0
  0
SEQEND
  5
342
330
33F
100
AcDbEntity
  8
Capa 1
 62
   250
370
     9
  0
MTEXT
  5
343
330
1F
100
AcDbEntity
  8
Capa 1
 62
   250
100
AcDbMText
 10
153.6471029957137
 20
-187.2071823976647
 30
0.0
 40
2.9971999992507
 41
0.0
 71
     7
 72
     1
  1
\fArial|b0|i0|c0|p34;\W1;28
 73
     1
 44
1.0
  0
MTEXT
  5
344
330
1F
100
AcDbEntity
  8
Capa 1
 62
   250
100
AcDbMText
 10
39.0750912038814
 20
-143.1213242914766
 30
0.0
 40
2.9971999992507
 41
0.0
 71
     7
 72
     1
  1
\fArial|b0|i0|c0|p34;\W1;141
 11
6.123233995736766E-17
 21
1.0
 31
0.0
 73
     1
 44
1.0
  0
MTEXT
  5
345
330
1F
100
AcDbEntity
  8
Capa 1
 62
   250
100
AcDbMText
 10
48.15091534576392
 20
-141.6130614880342
 30
0.0
 40
2.9971999992507
 41
0.0
 71
     7
 72
     1
  1
\fArial|b0|i0|c0|p34;\W1;81
 11
6.123233995736766E-17
 21
1.0
 31
0.0
 73
     1
 44
1.0
  0
MTEXT
  5
346
330
1F
100
AcDbEntity
  8
Capa 1
 62
   250
100
AcDbMText
 10
41.76308389255402
 20
-181.7867801847576
 30
0.0
 40
2.9971999992507
 41
0.0
 71
     7
 72
     1
  1
\fArial|b0|i0|c0|p34;\W1;7,5
 73
     1
 44
1.0
  0
POLYLINE
  5
347
330
1F
100
AcDbEntity
  8
Capa 1
 62
   250
370
     9
100
AcDb2dPolyline
 66
     1
 10
0.0
 20
0.0
 30
0.0
  0
VERTEX
  5
348
330
347
100
AcDbEntity
  8
Capa 1
 62
   250
370
     9
100
AcDbVertex
100
AcDb2dVertex
 10
62.68944545188648
 20
-101.2914177234561
 30
0.0
  0
VERTEX
  5
349
330
347
100
AcDbEntity
  8
Capa 1
 62
   250
370
     9
100
AcDbVertex
100
AcDb2dVertex
 10
39.83363864045998
 20
-101.2914177234561
 30
0.0
  0
SEQEND
  5
34A
330
347
100
AcDbEntity
  8
Capa 1
 62
   250
370
     9
  0
POLYLINE
  5
34B
330
1F
100
AcDbEntity
  8
Capa 1
 62
   250
370
     9
100
AcDb2dPolyline
 66
     1
 10
0.0
 20
0.0
 30
0.0
  0
VERTEX
  5
34C
330
34B
100
AcDbEntity
  8
Capa 1
 62
   250
370
     9
100
AcDbVertex
100
AcDb2dVertex
 10
76.05857088937623
 20
-116.9017954649509
 30
0.0
  0
VERTEX
  5
34D
330
34B
100
AcDbEntity
  8
Capa 1
 62
   250
370
     9
100
AcDbVertex
100
AcDb2dVertex
 10
48.15085829379107
 20
-116.9017954649509
 30
0.0
  0
SEQEND
  5
34E
330
34B
100
AcDbEntity
  8
Capa 1
 62
   250
370
     9
  0
POLYLINE
  5
34F
330
1F
100
AcDbEntity
  8
Capa 1
 62
   250
370
     9
100
AcDb2dPolyline
 66
     1
 10
0.0
 20
0.0
 30
0.0
  0
VERTEX
  5
350
330
34F
100
AcDbEntity
  8
Capa 1
 62
   250
370
     9
100
AcDbVertex
100
AcDb2dVertex
 10
62.10471459158365
 20
-161.6158370498128
 30
0.0
  0
VERTEX
  5
351
330
34F
100
AcDbEntity
  8
Capa 1
 62
   250
370
     9
100
AcDbVertex
100
AcDb2dVertex
 10
47.18069035642897
 20
-161.6158370498128
 30
0.0
  0
SEQEND
  5
352
330
34F
100
AcDbEntity
  8
Capa 1
 62
   250
370
     9
  0
POLYLINE
  5
353
330
1F
100
AcDbEntity
  8
Capa 1
 62
   250
370
     9
100
AcDb2dPolyline
 66
     1
 10
0.0
 20
0.0
 30
0.0
  0
VERTEX
  5
354
330
353
100
AcDbEntity
  8
Capa 1
 62
   250
370
     9
100
AcDbVertex
100
AcDb2dVertex
 10
69.17172405499527
 20
-177.8881383601899
 30
0.0
  0
VERTEX
  5
355
330
353
100
AcDbEntity
  8
Capa 1
 62
   250
370
     9
100
AcDbVertex
100
AcDb2dVertex
 10
39.83363864045998
 20
-177.8881383601899
 30
0.0
  0
SEQEND
  5
356
330
353
100
AcDbEntity
  8
Capa 1
 62
   250
370
     9
  0
POLYLINE
  5
357
330
1F
100
AcDbEntity
  8
Capa 1
 62
   250
370
     9
100
AcDb2dPolyline
 66
     1
 10
0.0
 20
0.0
 30
0.0
  0
VERTEX
  5
358
330
357
100
AcDbEntity
  8
Capa 1
 62
   250
370
     9
100
AcDbVertex
100
AcDb2dVertex
 10
69.17172405499527
 20
-182.4167739934214
 30
0.0
  0
VERTEX
  5
359
330
357
100
AcDbEntity
  8
Capa 1
 62
   250
370
     9
100
AcDbVertex
100
AcDb2dVertex
 10
47.18069035642897
 20
-182.4167739934214
 30
0.0
  0
SEQEND
  5
35A
330
357
100
AcDbEntity
  8
Capa 1
 62
   250
370
     9
  0
POLYLINE
  5
35B
330
1F
100
AcDbEntity
  8
Capa 1
 62
   250
370
     9
100
AcDb2dPolyline
 66
     1
 10
0.0
 20
0.0
 30
0.0
  0
VERTEX
  5
35C
330
35B
100
AcDbEntity
  8
Capa 1
 62
   250
370
     9
100
AcDbVertex
100
AcDb2dVertex
 10
40.65678512974337
 20
-101.2914177234561
 30
0.0
  0
VERTEX
  5
35D
330
35B
100
AcDbEntity
  8
Capa 1
 62
   250
370
     9
100
AcDbVertex
100
AcDb2dVertex
 10
40.65678512974337
 20
-177.8881383601899
 30
0.0
  0
SEQEND
  5
35E
330
35B
100
AcDbEntity
  8
Capa 1
 62
   250
370
     9
  0
POLYLINE
  5
35F
330
1F
100
AcDbEntity
  8
Capa 1
 62
   250
370
     9
100
AcDb2dPolyline
 66
     1
 10
0.0
 20
0.0
 30
0.0
  0
VERTEX
  5
360
330
35F
100
AcDbEntity
  8
Capa 1
 62
   250
370
     9
100
AcDbVertex
100
AcDb2dVertex
 10
49.15796131976752
 20
-116.9017954649509
 30
0.0
  0
VERTEX
  5
361
330
35F
100
AcDbEntity
  8
Capa 1
 62
   250
370
     9
100
AcDbVertex
100
AcDb2dVertex
 10
49.15796131976752
 20
-161.6158370498128
 30
0.0
  0
SEQEND
  5
362
330
35F
100
AcDbEntity
  8
Capa 1
 62
   250
370
     9
  0
POLYLINE
  5
363
330
1F
100
AcDbEntity
  8
Capa 1
 62
   250
370
     9
100
AcDb2dPolyline
 66
     1
 10
0.0
 20
0.0
 30
0.0
  0
VERTEX
  5
364
330
363
100
AcDbEntity
  8
Capa 1
 62
   250
370
     9
100
AcDbVertex
100
AcDb2dVertex
 10
49.15796131976752
 20
-177.8881383601899
 30
0.0
  0
VERTEX
  5
365
330
363
100
AcDbEntity
  8
Capa 1
 62
   250
370
     9
100
AcDbVertex
100
AcDb2dVertex
 10
49.15796131976752
 20
-182.4167739934214
 30
0.0
  0
SEQEND
  5
366
330
363
100
AcDbEntity
  8
Capa 1
 62
   250
370
     9
  0
SPLINE
  5
367
330
1F
100
AcDbEntity
  8
Capa 1
 62
   250
370
     9
100
AcDbSpline
210
0.0
220
0.0
230
1.0
 70
    11
 71
     3
 72
    23
 73
    19
 74
     0
 42
0.0000000001
 43
0.0000000001
 12
1.0
 22
0.0
 32
0.0
 13
1.0
 23
0.0
 33
0.0
 40
0.0
 40
0.0
 40
0.0
 40
0.0
 40
1.0
 40
1.0
 40
1.0
 40
2.0
 40
2.0
 40
2.0
 40
3.0
 40
3.0
 40
3.0
 40
4.0
 40
4.0
 40
4.0
 40
5.0
 40
5.0
 40
5.0
 40
6.0
 40
6.0
 40
6.0
 40
6.0
 10
163.8165018941781
 20
-172.6405794910069
 30
0.0
 10
163.8165018941781
 20
-172.6405794910069
 30
0.0
 10
163.8165018941781
 20
-177.2854761159691
 30
0.0
 10
163.8165018941781
 20
-177.2854761159691
 30
0.0
 10
163.8165018941781
 20
-177.6735316714278
 30
0.0
 10
163.4990018942576
 20
-177.9910316713483
 30
0.0
 10
163.110946338799
 20
-177.9910316713483
 30
0.0
 10
163.110946338799
 20
-177.9910316713483
 30
0.0
 10
148.4791615915824
 20
-177.9910316713483
 30
0.0
 10
148.4791615915824
 20
-177.9910316713483
 30
0.0
 10
148.0911060361237
 20
-177.9910316713483
 30
0.0
 10
147.7736060362032
 20
-177.6735316714278
 30
0.0
 10
147.7736060362032
 20
-177.2854761159691
 30
0.0
 10
147.7736060362032
 20
-177.2854761159691
 30
0.0
 10
147.7736060362032
 20
-172.6405794910069
 30
0.0
 10
147.7736060362032
 20
-172.6405794910069
 30
0.0
 10
147.7736060362032
 20
-172.6405794910069
 30
0.0
 10
163.8165018941781
 20
-172.6405794910069
 30
0.0
 10
163.8165018941781
 20
-172.6405794910069
 30
0.0
  0
POLYLINE
  5
368
330
1F
100
AcDbEntity
  8
Capa 1
 62
   250
370
     9
100
AcDb2dPolyline
 66
     1
 10
0.0
 20
0.0
 30
0.0
  0
VERTEX
  5
369
330
368
100
AcDbEntity
  8
Capa 1
 62
   250
370
     9
100
AcDbVertex
100
AcDb2dVertex
 10
150.566424481988
 20
-170.3181304676696
 30
0.0
  0
VERTEX
  5
36A
330
368
100
AcDbEntity
  8
Capa 1
 62
   250
370
     9
100
AcDbVertex
100
AcDb2dVertex
 10
161.0236834479486
 20
-170.3181304676696
 30
0.0
  0
SEQEND
  5
36B
330
368
100
AcDbEntity
  8
Capa 1
 62
   250
370
     9
  0
POLYLINE
  5
36C
330
1F
100
AcDbEntity
  8
Capa 1
 62
   250
370
     9
100
AcDb2dPolyline
 66
     1
 10
0.0
 20
0.0
 30
0.0
  0
VERTEX
  5
36D
330
36C
100
AcDbEntity
  8
Capa 1
 62
   250
370
     9
100
AcDbVertex
100
AcDb2dVertex
 10
147.7736060362032
 20
-146.7702612563785
 30
0.0
  0
VERTEX
  5
36E
330
36C
100
AcDbEntity
  8
Capa 1
 62
   250
370
     9
100
AcDbVertex
100
AcDb2dVertex
 10
147.7736060362032
 20
-149.5885733573839
 30
0.0
  0
SEQEND
  5
36F
330
36C
100
AcDbEntity
  8
Capa 1
 62
   250
370
     9
  0
POLYLINE
  5
370
330
1F
100
AcDbEntity
  8
Capa 1
 62
   250
370
     9
100
AcDb2dPolyline
 66
     1
 10
0.0
 20
0.0
 30
0.0
  0
VERTEX
  5
371
330
370
100
AcDbEntity
  8
Capa 1
 62
   250
370
     9
100
AcDbVertex
100
AcDb2dVertex
 10
163.8165018955783
 20
-146.7702612563179
 30
0.0
  0
VERTEX
  5
372
330
370
100
AcDbEntity
  8
Capa 1
 62
   250
370
     9
100
AcDbVertex
100
AcDb2dVertex
 10
163.8165018955783
 20
-149.588573357323
 30
0.0
  0
SEQEND
  5
373
330
370
100
AcDbEntity
  8
Capa 1
 62
   250
370
     9
  0
ENDSEC
  0
SECTION
  2
OBJECTS
  0
DICTIONARY
  5
C
330
0
100
AcDbDictionary
281
     1
  3
ACAD_GROUP
350
D
  3
ACAD_LAYOUT
350
1A
  3
ACAD_MATERIAL
350
3B
  3
ACAD_MLEADERSTYLE
350
376
  3
ACAD_MLINESTYLE
350
17
  3
ACAD_PLOTSETTINGS
350
19
  3
ACAD_PLOTSTYLENAME
350
E
  3
ACAD_VISUALSTYLE
350
2A
  3
AcDbVariableDictionary
350
374
  0
DICTIONARY
  5
D
102
{ACAD_REACTORS
330
C
102
}
330
C
100
AcDbDictionary
281
     1
  0
DICTIONARY
  5
1A
102
{ACAD_REACTORS
330
C
102
}
330
C
100
AcDbDictionary
281
     1
  3
Layout1
350
1E
  3
Layout2
350
26
  3
Model
350
22
  0
DICTIONARY
  5
3B
102
{ACAD_REACTORS
330
C
102
}
330
C
100
AcDbDictionary
281
     1
  3
ByBlock
350
3D
  3
ByLayer
350
3C
  3
Global
350
3E
  0
DICTIONARY
  5
376
102
{ACAD_REACTORS
330
C
102
}
330
C
100
AcDbDictionary
281
     1
  0
DICTIONARY
  5
17
102
{ACAD_REACTORS
330
C
102
}
330
C
100
AcDbDictionary
281
     1
  3
Standard
350
18
  0
DICTIONARY
  5
19
102
{ACAD_REACTORS
330
C
102
}
330
C
100
AcDbDictionary
281
     1
  0
ACDBDICTIONARYWDFLT
  5
E
102
{ACAD_REACTORS
330
C
102
}
330
C
100
AcDbDictionary
281
     1
  3
Normal
350
F
100
AcDbDictionaryWithDefault
340
F
  0
DICTIONARY
  5
2A
102
{ACAD_REACTORS
330
C
102
}
330
C
100
AcDbDictionary
281
     1
  3
2dWireframe
350
2F
  3
3D Hidden
350
31
  3
3dWireframe
350
30
  3
Basic
350
32
  3
Brighten
350
36
  3
ColorChange
350
3A
  3
Conceptual
350
34
  3
Dim
350
35
  3
Facepattern
350
39
  3
Flat
350
2B
  3
FlatWithEdges
350
2C
  3
Gouraud
350
2D
  3
GouraudWithEdges
350
2E
  3
Linepattern
350
38
  3
Realistic
350
33
  3
Thicken
350
37
  0
DICTIONARY
  5
374
102
{ACAD_REACTORS
330
C
102
}
330
C
100
AcDbDictionary
281
     1
  3
DIMASSOC
350
377
  3
HIDETEXT
350
378
  0
LAYOUT
  5
1E
102
{ACAD_REACTORS
330
1A
102
}
330
1A
100
AcDbPlotSettings
  1

  2
none_device
  4

  6

 40
0.0
 41
0.0
 42
0.0
 43
0.0
 44
0.0
 45
0.0
 46
0.0
 47
0.0
 48
0.0
 49
0.0
140
0.0
141
0.0
142
1.0
143
1.0
 70
   688
 72
     0
 73
     0
 74
     5
  7

 75
    16
147
1.0
148
0.0
149
0.0
100
AcDbLayout
  1
Layout1
 70
     1
 71
     1
 10
0.0
 20
0.0
 11
12.0
 21
9.0
 12
0.0
 22
0.0
 32
0.0
 14
1.000000000000000E+20
 24
1.000000000000000E+20
 34
1.000000000000000E+20
 15
-1.000000000000000E+20
 25
-1.000000000000000E+20
 35
-1.000000000000000E+20
146
0.0
 13
0.0
 23
0.0
 33
0.0
 16
1.0
 26
0.0
 36
0.0
 17
0.0
 27
1.0
 37
0.0
 76
     0
330
1B
  0
LAYOUT
  5
26
102
{ACAD_REACTORS
330
1A
102
}
330
1A
100
AcDbPlotSettings
  1

  2
none_device
  4

  6

 40
0.0
 41
0.0
 42
0.0
 43
0.0
 44
0.0
 45
0.0
 46
0.0
 47
0.0
 48
0.0
 49
0.0
140
0.0
141
0.0
142
1.0
143
1.0
 70
   688
 72
     0
 73
     0
 74
     5
  7

 75
    16
147
1.0
148
0.0
149
0.0
100
AcDbLayout
  1
Layout2
 70
     1
 71
     2
 10
0.0
 20
0.0
 11
0.0
 21
0.0
 12
0.0
 22
0.0
 32
0.0
 14
0.0
 24
0.0
 34
0.0
 15
0.0
 25
0.0
 35
0.0
146
0.0
 13
0.0
 23
0.0
 33
0.0
 16
1.0
 26
0.0
 36
0.0
 17
0.0
 27
1.0
 37
0.0
 76
     0
330
23
  0
LAYOUT
  5
22
102
{ACAD_REACTORS
330
1A
102
}
330
1A
100
AcDbPlotSettings
  1

  2
none_device
  4

  6

 40
0.0
 41
0.0
 42
0.0
 43
0.0
 44
0.0
 45
0.0
 46
0.0
 47
0.0
 48
0.0
 49
0.0
140
0.0
141
0.0
142
1.0
143
1.0
 70
  1712
 72
     0
 73
     0
 74
     0
  7

 75
     0
147
1.0
148
0.0
149
0.0
100
AcDbLayout
  1
Model
 70
     1
 71
     0
 10
0.0
 20
0.0
 11
12.0
 21
9.0
 12
0.0
 22
0.0
 32
0.0
 14
1.000000000000000E+20
 24
1.000000000000000E+20
 34
1.000000000000000E+20
 15
-1.000000000000000E+20
 25
-1.000000000000000E+20
 35
-1.000000000000000E+20
146
0.0
 13
0.0
 23
0.0
 33
0.0
 16
1.0
 26
0.0
 36
0.0
 17
0.0
 27
1.0
 37
0.0
 76
     0
330
1F
331
29
  0
MATERIAL
  5
3D
102
{ACAD_REACTORS
330
3B
102
}
102
{ACAD_XDICTIONARY
360
39B
102
}
330
3B
100
AcDbMaterial
  1
ByBlock
  0
MATERIAL
  5
3C
102
{ACAD_REACTORS
330
3B
102
}
102
{ACAD_XDICTIONARY
360
399
102
}
330
3B
100
AcDbMaterial
  1
ByLayer
  0
MATERIAL
  5
3E
102
{ACAD_REACTORS
330
3B
102
}
102
{ACAD_XDICTIONARY
360
39D
102
}
330
3B
100
AcDbMaterial
  1
Global
  0
MLINESTYLE
  5
18
102
{ACAD_REACTORS
330
17
102
}
330
17
100
AcDbMlineStyle
  2
Standard
 70
     0
  3

 62
   256
 51
90.0
 52
90.0
 71
     2
 49
0.5
 62
   256
  6
BYLAYER
 49
-0.5
 62
   256
  6
BYLAYER
  0
ACDBPLACEHOLDER
  5
F
102
{ACAD_REACTORS
330
E
102
}
330
E
  0
VISUALSTYLE
  5
2F
102
{ACAD_REACTORS
330
2A
102
}
102
{ACAD_XDICTIONARY
360
381
102
}
330
2A
100
AcDbVisualStyle
  2
2dWireframe
 70
     4
 71
     0
 72
     2
 73
     0
 90
        0
 40
-0.6
 41
-30.0
 62
     5
 63
     7
 74
     1
 91
        4
 64
     7
 65
   257
 75
     1
175
     1
 42
1.0
 92
        0
 66
   257
 43
1.0
 76
     1
 77
     6
 78
     2
 67
     7
 79
     5
170
     0
171
     0
290
     0
174
     0
 93
        1
 44
0.0
173
     0
291
     0
 45
0.0
1001
ACAD
1000
AcDbSavedByObjectVersion
1070
     0
  0
VISUALSTYLE
  5
31
102
{ACAD_REACTORS
330
2A
102
}
102
{ACAD_XDICTIONARY
360
385
102
}
330
2A
100
AcDbVisualStyle
  2
3D Hidden
 70
     6
 71
     1
 72
     2
 73
     2
 90
        0
 40
-0.6
 41
-30.0
 62
     5
 63
     7
 74
     2
 91
        2
 64
     7
 65
   257
 75
     2
175
     1
 42
40.0
 92
        0
 66
   257
 43
1.0
 76
     1
 77
     6
 78
     2
 67
     7
 79
     3
170
     0
171
     0
290
     0
174
     0
 93
        1
 44
0.0
173
     0
291
     0
 45
0.0
1001
ACAD
1000
AcDbSavedByObjectVersion
1070
     0
  0
VISUALSTYLE
  5
30
102
{ACAD_REACTORS
330
2A
102
}
102
{ACAD_XDICTIONARY
360
383
102
}
330
2A
100
AcDbVisualStyle
  2
3dWireframe
 70
     5
 71
     0
 72
     2
 73
     0
 90
        0
 40
-0.6
 41
-30.0
 62
     5
 63
     7
 74
     1
 91
        4
 64
     7
 65
   257
 75
     1
175
     1
 42
1.0
 92
        0
 66
   257
 43
1.0
 76
     1
 77
     6
 78
     2
 67
     7
 79
     5
170
     0
171
     0
290
     0
174
     0
 93
        1
 44
0.0
173
     0
291
     0
 45
0.0
1001
ACAD
1000
AcDbSavedByObjectVersion
1070
     0
  0
VISUALSTYLE
  5
32
102
{ACAD_REACTORS
330
2A
102
}
102
{ACAD_XDICTIONARY
360
387
102
}
330
2A
100
AcDbVisualStyle
  2
Basic
 70
     7
 71
     1
 72
     0
 73
     1
 90
        0
 40
-0.6
 41
-30.0
 62
     5
 63
     7
 74
     0
 91
        4
 64
     7
 65
   257
 75
     1
175
     1
 42
1.0
 92
        8
 66
     7
 43
1.0
 76
     1
 77
     6
 78
     2
 67
     7
 79
     5
170
     0
171
     0
290
     0
174
     0
 93
        1
 44
0.0
173
     0
291
     1
 45
0.0
1001
ACAD
1000
AcDbSavedByObjectVersion
1070
     0
  0
VISUALSTYLE
  5
36
102
{ACAD_REACTORS
330
2A
102
}
102
{ACAD_XDICTIONARY
360
38F
102
}
330
2A
100
AcDbVisualStyle
  2
Brighten
 70
    12
 71
     2
 72
     2
 73
     0
 90
        0
 40
-0.6
 41
-30.0
 62
     5
 63
     7
 74
     1
 91
        4
 64
     7
 65
   257
 75
     1
175
     1
 42
1.0
 92
        8
 66
     7
 43
1.0
 76
     1
 77
     6
 78
     2
 67
     7
 79
     5
170
     0
171
     0
290
     0
174
     0
 93
        1
 44
50.0
173
     0
291
     1
 45
0.0
1001
ACAD
1000
AcDbSavedByObjectVersion
1070
     0
  0
VISUALSTYLE
  5
3A
102
{ACAD_REACTORS
330
2A
102
}
102
{ACAD_XDICTIONARY
360
397
102
}
330
2A
100
AcDbVisualStyle
  2
ColorChange
 70
    16
 71
     2
 72
     2
 73
     3
 90
        0
 40
-0.6
 41
-30.0
 62
     5
 63
     8
 74
     1
 91
        4
 64
     7
 65
   257
 75
     1
175
     1
 42
1.0
 92
        8
 66
     8
 43
1.0
 76
     1
 77
     6
 78
     2
 67
     7
 79
     5
170
     0
171
     0
290
     0
174
     0
 93
        1
 44
0.0
173
     0
291
     1
 45
0.0
1001
ACAD
1000
AcDbSavedByObjectVersion
1070
     0
  0
VISUALSTYLE
  5
34
102
{ACAD_REACTORS
330
2A
102
}
102
{ACAD_XDICTIONARY
360
38B
102
}
330
2A
100
AcDbVisualStyle
  2
Conceptual
 70
     9
 71
     3
 72
     2
 73
     0
 90
        0
 40
-0.6
 41
-30.0
 62
     5
 63
     7
 74
     2
 91
        2
 64
     7
 65
   257
 75
     1
175
     1
 42
40.0
 92
        8
 66
     7
 43
1.0
 76
     1
 77
     6
 78
     2
 67
     7
 79
     3
170
     0
171
     0
290
     0
174
     0
 93
        1
 44
0.0
173
     0
291
     0
 45
0.0
1001
ACAD
1000
AcDbSavedByObjectVersion
1070
     0
  0
VISUALSTYLE
  5
35
102
{ACAD_REACTORS
330
2A
102
}
102
{ACAD_XDICTIONARY
360
38D
102
}
330
2A
100
AcDbVisualStyle
  2
Dim
 70
    11
 71
     2
 72
     2
 73
     0
 90
        0
 40
-0.6
 41
-30.0
 62
     5
 63
     7
 74
     1
 91
        4
 64
     7
 65
   257
 75
     1
175
     1
 42
1.0
 92
        8
 66
     7
 43
1.0
 76
     1
 77
     6
 78
     2
 67
     7
 79
     5
170
     0
171
     0
290
     0
174
     0
 93
        1
 44
-50.0
173
     0
291
     1
 45
0.0
1001
ACAD
1000
AcDbSavedByObjectVersion
1070
     0
  0
VISUALSTYLE
  5
39
102
{ACAD_REACTORS
330
2A
102
}
102
{ACAD_XDICTIONARY
360
395
102
}
330
2A
100
AcDbVisualStyle
  2
Facepattern
 70
    15
 71
     2
 72
     2
 73
     0
 90
        0
 40
-0.6
 41
-30.0
 62
     5
 63
     7
 74
     1
 91
        4
 64
     7
 65
   257
 75
     1
175
     1
 42
1.0
 92
        8
 66
     7
 43
1.0
 76
     1
 77
     6
 78
     2
 67
     7
 79
     5
170
     0
171
     0
290
     0
174
     0
 93
        1
 44
0.0
173
     0
291
     1
 45
0.0
1001
ACAD
1000
AcDbSavedByObjectVersion
1070
     0
  0
VISUALSTYLE
  5
2B
102
{ACAD_REACTORS
330
2A
102
}
102
{ACAD_XDICTIONARY
360
379
102
}
330
2A
100
AcDbVisualStyle
  2
Flat
 70
     0
 71
     2
 72
     1
 73
     1
 90
        2
 40
-0.6
 41
30.0
 62
     5
 63
     7
 74
     0
 91
        4
 64
     7
 65
   257
 75
     1
175
     1
 42
1.0
 92
        8
 66
     7
 43
1.0
 76
     1
 77
     6
 78
     2
 67
     7
 79
     5
170
     0
171
     0
290
     0
174
     0
 93
       13
 44
0.0
173
     0
291
     1
 45
0.0
1001
ACAD
1000
AcDbSavedByObjectVersion
1070
     0
  0
VISUALSTYLE
  5
2C
102
{ACAD_REACTORS
330
2A
102
}
102
{ACAD_XDICTIONARY
360
37B
102
}
330
2A
100
AcDbVisualStyle
  2
FlatWithEdges
 70
     1
 71
     2
 72
     1
 73
     1
 90
        2
 40
-0.6
 41
30.0
 62
     5
 63
     7
 74
     1
 91
        4
 64
     7
 65
   257
 75
     1
175
     1
 42
1.0
 92
        0
 66
   257
 43
1.0
 76
     1
 77
     6
 78
     2
 67
     7
 79
     5
170
     0
171
     0
290
     0
174
     0
 93
       13
 44
0.0
173
     0
291
     1
 45
0.0
1001
ACAD
1000
AcDbSavedByObjectVersion
1070
     0
  0
VISUALSTYLE
  5
2D
102
{ACAD_REACTORS
330
2A
102
}
102
{ACAD_XDICTIONARY
360
37D
102
}
330
2A
100
AcDbVisualStyle
  2
Gouraud
 70
     2
 71
     2
 72
     2
 73
     1
 90
        2
 40
-0.6
 41
30.0
 62
     5
 63
     7
 74
     0
 91
        4
 64
     7
 65
   257
 75
     1
175
     1
 42
1.0
 92
        0
 66
     7
 43
1.0
 76
     1
 77
     6
 78
     2
 67
     7
 79
     5
170
     0
171
     0
290
     0
174
     0
 93
       13
 44
0.0
173
     0
291
     1
 45
0.0
1001
ACAD
1000
AcDbSavedByObjectVersion
1070
     0
  0
VISUALSTYLE
  5
2E
102
{ACAD_REACTORS
330
2A
102
}
102
{ACAD_XDICTIONARY
360
37F
102
}
330
2A
100
AcDbVisualStyle
  2
GouraudWithEdges
 70
     3
 71
     2
 72
     2
 73
     1
 90
        2
 40
-0.6
 41
30.0
 62
     5
 63
     7
 74
     1
 91
        4
 64
     7
 65
   257
 75
     1
175
     1
 42
1.0
 92
        0
 66
   257
 43
1.0
 76
     1
 77
     6
 78
     2
 67
     7
 79
     5
170
     0
171
     0
290
     0
174
     0
 93
       13
 44
0.0
173
     0
291
     1
 45
0.0
1001
ACAD
1000
AcDbSavedByObjectVersion
1070
     0
  0
VISUALSTYLE
  5
38
102
{ACAD_REACTORS
330
2A
102
}
102
{ACAD_XDICTIONARY
360
393
102
}
330
2A
100
AcDbVisualStyle
  2
Linepattern
 70
    14
 71
     2
 72
     2
 73
     0
 90
        0
 40
-0.6
 41
-30.0
 62
     5
 63
     7
 74
     1
 91
        4
 64
     7
 65
   257
 75
     7
175
     7
 42
1.0
 92
        8
 66
     7
 43
1.0
 76
     1
 77
     6
 78
     2
 67
     7
 79
     5
170
     0
171
     0
290
     0
174
     0
 93
        1
 44
0.0
173
     0
291
     1
 45
0.0
1001
ACAD
1000
AcDbSavedByObjectVersion
1070
     0
  0
VISUALSTYLE
  5
33
102
{ACAD_REACTORS
330
2A
102
}
102
{ACAD_XDICTIONARY
360
389
102
}
330
2A
100
AcDbVisualStyle
  2
Realistic
 70
     8
 71
     2
 72
     2
 73
     0
 90
        0
 40
-0.6
 41
-30.0
 62
     5
 63
     7
 74
     1
 91
        0
 64
     7
 65
   257
 75
     1
175
     1
 42
1.0
 92
        8
 66
     8
 43
1.0
 76
     1
 77
     6
 78
     2
 67
     7
 79
     5
170
     0
171
     0
290
     0
174
     0
 93
       13
 44
0.0
173
     0
291
     0
 45
0.0
1001
ACAD
1000
AcDbSavedByObjectVersion
1070
     0
  0
VISUALSTYLE
  5
37
102
{ACAD_REACTORS
330
2A
102
}
102
{ACAD_XDICTIONARY
360
391
102
}
330
2A
100
AcDbVisualStyle
  2
Thicken
 70
    13
 71
     2
 72
     2
 73
     0
 90
        0
 40
-0.6
 41
-30.0
 62
     5
 63
     7
 74
     1
 91
        4
 64
     7
 65
   257
 75
     1
175
     1
 42
1.0
 92
       12
 66
     7
 43
1.0
 76
     1
 77
     6
 78
     2
 67
     7
 79
     5
170
     0
171
     0
290
     0
174
     0
 93
        1
 44
0.0
173
     0
291
     1
 45
0.0
1001
ACAD
1000
AcDbSavedByObjectVersion
1070
     0
  0
DICTIONARYVAR
  5
377
102
{ACAD_REACTORS
330
374
102
}
330
374
100
DictionaryVariables
280
     0
  1
2
  0
DICTIONARYVAR
  5
378
102
{ACAD_REACTORS
330
374
102
}
330
374
100
DictionaryVariables
280
     0
  1
1
  0
DICTIONARY
  5
39B
330
3D
100
AcDbDictionary
280
     1
281
     1
  3
ACAD_XREC_ROUNDTRIP
360
39C
  0
DICTIONARY
  5
399
330
3C
100
AcDbDictionary
280
     1
281
     1
  3
ACAD_XREC_ROUNDTRIP
360
39A
  0
DICTIONARY
  5
39D
330
3E
100
AcDbDictionary
280
     1
281
     1
  3
ACAD_XREC_ROUNDTRIP
360
39E
  0
DICTIONARY
  5
381
330
2F
100
AcDbDictionary
280
     1
281
     1
  3
ACAD_XREC_ROUNDTRIP
360
382
  0
DICTIONARY
  5
385
330
31
100
AcDbDictionary
280
     1
281
     1
  3
ACAD_XREC_ROUNDTRIP
360
386
  0
DICTIONARY
  5
383
330
30
100
AcDbDictionary
280
     1
281
     1
  3
ACAD_XREC_ROUNDTRIP
360
384
  0
DICTIONARY
  5
387
330
32
100
AcDbDictionary
280
     1
281
     1
  3
ACAD_XREC_ROUNDTRIP
360
388
  0
DICTIONARY
  5
38F
330
36
100
AcDbDictionary
280
     1
281
     1
  3
ACAD_XREC_ROUNDTRIP
360
390
  0
DICTIONARY
  5
397
330
3A
100
AcDbDictionary
280
     1
281
     1
  3
ACAD_XREC_ROUNDTRIP
360
398
  0
DICTIONARY
  5
38B
330
34
100
AcDbDictionary
280
     1
281
     1
  3
ACAD_XREC_ROUNDTRIP
360
38C
  0
DICTIONARY
  5
38D
330
35
100
AcDbDictionary
280
     1
281
     1
  3
ACAD_XREC_ROUNDTRIP
360
38E
  0
DICTIONARY
  5
395
330
39
100
AcDbDictionary
280
     1
281
     1
  3
ACAD_XREC_ROUNDTRIP
360
396
  0
DICTIONARY
  5
379
330
2B
100
AcDbDictionary
280
     1
281
     1
  3
ACAD_XREC_ROUNDTRIP
360
37A
  0
DICTIONARY
  5
37B
330
2C
100
AcDbDictionary
280
     1
281
     1
  3
ACAD_XREC_ROUNDTRIP
360
37C
  0
DICTIONARY
  5
37D
330
2D
100
AcDbDictionary
280
     1
281
     1
  3
ACAD_XREC_ROUNDTRIP
360
37E
  0
DICTIONARY
  5
37F
330
2E
100
AcDbDictionary
280
     1
281
     1
  3
ACAD_XREC_ROUNDTRIP
360
380
  0
DICTIONARY
  5
393
330
38
100
AcDbDictionary
280
     1
281
     1
  3
ACAD_XREC_ROUNDTRIP
360
394
  0
DICTIONARY
  5
389
330
33
100
AcDbDictionary
280
     1
281
     1
  3
ACAD_XREC_ROUNDTRIP
360
38A
  0
DICTIONARY
  5
391
330
37
100
AcDbDictionary
280
     1
281
     1
  3
ACAD_XREC_ROUNDTRIP
360
392
  0
XRECORD
  5
39C
102
{ACAD_REACTORS
330
39B
102
}
330
39B
100
AcDbXrecord
280
     1
102
MATERIAL
148
0.0
149
0.0
149
0.0
 93
        0
 94
      127
282
     0
 72
     1
 77
     1
171
     1
175
     1
179
     1
273
     0
  0
XRECORD
  5
39A
102
{ACAD_REACTORS
330
399
102
}
330
399
100
AcDbXrecord
280
     1
102
MATERIAL
148
0.0
149
0.0
149
0.0
 93
        0
 94
      127
282
     0
 72
     1
 77
     1
171
     1
175
     1
179
     1
273
     0
  0
XRECORD
  5
39E
102
{ACAD_REACTORS
330
39D
102
}
330
39D
100
AcDbXrecord
280
     1
102
MATERIAL
148
0.0
149
0.0
149
0.0
 93
        0
 94
      127
282
     0
 72
     1
 77
     1
171
     1
175
     1
179
     1
273
     0
  0
XRECORD
  5
382
102
{ACAD_REACTORS
330
381
102
}
330
381
100
AcDbXrecord
280
     1
102
RTVSPropertyOp0
 70
     1
102
RTVSPropertyOp1
 70
     1
102
RTVSPropertyOp2
 70
     1
102
RTVSPropertyOp3
 70
     1
102
RTVSPropertyOp4
 70
     1
102
RTVSPropertyOp5
 70
     1
102
RTVSPropertyOp6
 70
     1
102
RTVSPropertyOp7
 70
     1
102
RTVSPropertyOp8
 70
     1
102
RTVSPropertyOp9
 70
     1
102
RTVSPropertyOp10
 70
     1
102
RTVSPropertyOp11
 70
     1
102
RTVSPropertyOp12
 70
     1
102
RTVSPropertyOp13
 70
     1
102
RTVSPropertyOp14
 70
     1
102
RTVSPropertyOp15
 70
     1
102
RTVSPropertyOp16
 70
     1
102
RTVSPropertyOp17
 70
     1
102
RTVSPropertyOp18
 70
     1
102
RTVSPropertyOp19
 70
     1
102
RTVSPropertyOp20
 70
     1
102
RTVSPropertyOp21
 70
     1
102
RTVSPropertyOp22
 70
     1
102
RTVSPropertyOp23
 70
     1
102
RTVSPropertyOp24
 70
     1
102
RTVSPropertyOp25
 70
     1
102
RTVSPropertyOp26
 70
     1
102
RTVSPropertyOp27
 70
     1
102
RTVSPropertyOp28
 70
     1
102
RTVSPropertyOp29
 70
     1
102
RTVSPropertyOp30
 70
     1
102
RTVSPropertyOp31
 70
     1
102
RTVSPropertyOp32
 70
     1
  0
XRECORD
  5
386
102
{ACAD_REACTORS
330
385
102
}
330
385
100
AcDbXrecord
280
     1
102
RTVSPropertyOp0
 70
     1
102
RTVSPropertyOp1
 70
     1
102
RTVSPropertyOp2
 70
     1
102
RTVSPropertyOp3
 70
     1
102
RTVSPropertyOp4
 70
     1
102
RTVSPropertyOp5
 70
     1
102
RTVSPropertyOp6
 70
     1
102
RTVSPropertyOp7
 70
     1
102
RTVSPropertyOp8
 70
     1
102
RTVSPropertyOp9
 70
     1
102
RTVSPropertyOp10
 70
     1
102
RTVSPropertyOp11
 70
     1
102
RTVSPropertyOp12
 70
     1
102
RTVSPropertyOp13
 70
     1
102
RTVSPropertyOp14
 70
     1
102
RTVSPropertyOp15
 70
     1
102
RTVSPropertyOp16
 70
     1
102
RTVSPropertyOp17
 70
     1
102
RTVSPropertyOp18
 70
     1
102
RTVSPropertyOp19
 70
     1
102
RTVSPropertyOp20
 70
     1
102
RTVSPropertyOp21
 70
     1
102
RTVSPropertyOp22
 70
     1
102
RTVSPropertyOp23
 70
     1
102
RTVSPropertyOp24
 70
     1
102
RTVSPropertyOp25
 70
     1
102
RTVSPropertyOp26
 70
     1
102
RTVSPropertyOp27
 70
     1
102
RTVSPropertyOp28
 70
     1
102
RTVSPropertyOp29
 70
     1
102
RTVSPropertyOp30
 70
     1
102
RTVSPropertyOp31
 70
     1
102
RTVSPropertyOp32
 70
     1
  0
XRECORD
  5
384
102
{ACAD_REACTORS
330
383
102
}
330
383
100
AcDbXrecord
280
     1
102
RTVSPropertyOp0
 70
     1
102
RTVSPropertyOp1
 70
     1
102
RTVSPropertyOp2
 70
     1
102
RTVSPropertyOp3
 70
     1
102
RTVSPropertyOp4
 70
     1
102
RTVSPropertyOp5
 70
     1
102
RTVSPropertyOp6
 70
     1
102
RTVSPropertyOp7
 70
     1
102
RTVSPropertyOp8
 70
     1
102
RTVSPropertyOp9
 70
     1
102
RTVSPropertyOp10
 70
     1
102
RTVSPropertyOp11
 70
     1
102
RTVSPropertyOp12
 70
     1
102
RTVSPropertyOp13
 70
     1
102
RTVSPropertyOp14
 70
     1
102
RTVSPropertyOp15
 70
     1
102
RTVSPropertyOp16
 70
     1
102
RTVSPropertyOp17
 70
     1
102
RTVSPropertyOp18
 70
     1
102
RTVSPropertyOp19
 70
     1
102
RTVSPropertyOp20
 70
     1
102
RTVSPropertyOp21
 70
     1
102
RTVSPropertyOp22
 70
     1
102
RTVSPropertyOp23
 70
     1
102
RTVSPropertyOp24
 70
     1
102
RTVSPropertyOp25
 70
     1
102
RTVSPropertyOp26
 70
     1
102
RTVSPropertyOp27
 70
     1
102
RTVSPropertyOp28
 70
     1
102
RTVSPropertyOp29
 70
     1
102
RTVSPropertyOp30
 70
     1
102
RTVSPropertyOp31
 70
     1
102
RTVSPropertyOp32
 70
     1
  0
XRECORD
  5
388
102
{ACAD_REACTORS
330
387
102
}
330
387
100
AcDbXrecord
280
     1
102
RTVSPropertyOp0
 70
     1
102
RTVSPropertyOp1
 70
     1
102
RTVSPropertyOp2
 70
     1
102
RTVSPropertyOp3
 70
     1
102
RTVSPropertyOp4
 70
     1
102
RTVSPropertyOp5
 70
     1
102
RTVSPropertyOp6
 70
     1
102
RTVSPropertyOp7
 70
     1
102
RTVSPropertyOp8
 70
     1
102
RTVSPropertyOp9
 70
     1
102
RTVSPropertyOp10
 70
     1
102
RTVSPropertyOp11
 70
     1
102
RTVSPropertyOp12
 70
     1
102
RTVSPropertyOp13
 70
     1
102
RTVSPropertyOp14
 70
     1
102
RTVSPropertyOp15
 70
     1
102
RTVSPropertyOp16
 70
     1
102
RTVSPropertyOp17
 70
     1
102
RTVSPropertyOp18
 70
     1
102
RTVSPropertyOp19
 70
     1
102
RTVSPropertyOp20
 70
     1
102
RTVSPropertyOp21
 70
     1
102
RTVSPropertyOp22
 70
     1
102
RTVSPropertyOp23
 70
     1
102
RTVSPropertyOp24
 70
     1
102
RTVSPropertyOp25
 70
     1
102
RTVSPropertyOp26
 70
     1
102
RTVSPropertyOp27
 70
     1
102
RTVSPropertyOp28
 70
     1
102
RTVSPropertyOp29
 70
     1
102
RTVSPropertyOp30
 70
     1
102
RTVSPropertyOp31
 70
     1
102
RTVSPropertyOp32
 70
     1
  0
XRECORD
  5
390
102
{ACAD_REACTORS
330
38F
102
}
330
38F
100
AcDbXrecord
280
     1
102
RTVSPropertyOp0
 70
     1
102
RTVSPropertyOp1
 70
     1
102
RTVSPropertyOp2
 70
     1
102
RTVSPropertyOp3
 70
     1
102
RTVSPropertyOp4
 70
     1
102
RTVSPropertyOp5
 70
     1
102
RTVSPropertyOp6
 70
     1
102
RTVSPropertyOp7
 70
     1
102
RTVSPropertyOp8
 70
     1
102
RTVSPropertyOp9
 70
     1
102
RTVSPropertyOp10
 70
     1
102
RTVSPropertyOp11
 70
     1
102
RTVSPropertyOp12
 70
     1
102
RTVSPropertyOp13
 70
     1
102
RTVSPropertyOp14
 70
     1
102
RTVSPropertyOp15
 70
     1
102
RTVSPropertyOp16
 70
     1
102
RTVSPropertyOp17
 70
     1
102
RTVSPropertyOp18
 70
     1
102
RTVSPropertyOp19
 70
     1
102
RTVSPropertyOp20
 70
     1
102
RTVSPropertyOp21
 70
     1
102
RTVSPropertyOp22
 70
     1
102
RTVSPropertyOp23
 70
     1
102
RTVSPropertyOp24
 70
     1
102
RTVSPropertyOp25
 70
     1
102
RTVSPropertyOp26
 70
     1
102
RTVSPropertyOp27
 70
     1
102
RTVSPropertyOp28
 70
     1
102
RTVSPropertyOp29
 70
     1
102
RTVSPropertyOp30
 70
     1
102
RTVSPropertyOp31
 70
     1
102
RTVSPropertyOp32
 70
     1
  0
XRECORD
  5
398
102
{ACAD_REACTORS
330
397
102
}
330
397
100
AcDbXrecord
280
     1
102
RTVSPropertyOp0
 70
     1
102
RTVSPropertyOp1
 70
     1
102
RTVSPropertyOp2
 70
     1
102
RTVSPropertyOp3
 70
     1
102
RTVSPropertyOp4
 70
     1
102
RTVSPropertyOp5
 70
     1
102
RTVSPropertyOp6
 70
     1
102
RTVSPropertyOp7
 70
     1
102
RTVSPropertyOp8
 70
     1
102
RTVSPropertyOp9
 70
     1
102
RTVSPropertyOp10
 70
     1
102
RTVSPropertyOp11
 70
     1
102
RTVSPropertyOp12
 70
     1
102
RTVSPropertyOp13
 70
     1
102
RTVSPropertyOp14
 70
     1
102
RTVSPropertyOp15
 70
     1
102
RTVSPropertyOp16
 70
     1
102
RTVSPropertyOp17
 70
     1
102
RTVSPropertyOp18
 70
     1
102
RTVSPropertyOp19
 70
     1
102
RTVSPropertyOp20
 70
     1
102
RTVSPropertyOp21
 70
     1
102
RTVSPropertyOp22
 70
     1
102
RTVSPropertyOp23
 70
     1
102
RTVSPropertyOp24
 70
     1
102
RTVSPropertyOp25
 70
     1
102
RTVSPropertyOp26
 70
     1
102
RTVSPropertyOp27
 70
     1
102
RTVSPropertyOp28
 70
     1
102
RTVSPropertyOp29
 70
     1
102
RTVSPropertyOp30
 70
     1
102
RTVSPropertyOp31
 70
     1
102
RTVSPropertyOp32
 70
     1
  0
XRECORD
  5
38C
102
{ACAD_REACTORS
330
38B
102
}
330
38B
100
AcDbXrecord
280
     1
102
RTVSPropertyOp0
 70
     1
102
RTVSPropertyOp1
 70
     1
102
RTVSPropertyOp2
 70
     1
102
RTVSPropertyOp3
 70
     1
102
RTVSPropertyOp4
 70
     1
102
RTVSPropertyOp5
 70
     1
102
RTVSPropertyOp6
 70
     1
102
RTVSPropertyOp7
 70
     1
102
RTVSPropertyOp8
 70
     1
102
RTVSPropertyOp9
 70
     1
102
RTVSPropertyOp10
 70
     1
102
RTVSPropertyOp11
 70
     1
102
RTVSPropertyOp12
 70
     1
102
RTVSPropertyOp13
 70
     1
102
RTVSPropertyOp14
 70
     1
102
RTVSPropertyOp15
 70
     1
102
RTVSPropertyOp16
 70
     1
102
RTVSPropertyOp17
 70
     1
102
RTVSPropertyOp18
 70
     1
102
RTVSPropertyOp19
 70
     1
102
RTVSPropertyOp20
 70
     1
102
RTVSPropertyOp21
 70
     1
102
RTVSPropertyOp22
 70
     1
102
RTVSPropertyOp23
 70
     1
102
RTVSPropertyOp24
 70
     1
102
RTVSPropertyOp25
 70
     1
102
RTVSPropertyOp26
 70
     1
102
RTVSPropertyOp27
 70
     1
102
RTVSPropertyOp28
 70
     1
102
RTVSPropertyOp29
 70
     1
102
RTVSPropertyOp30
 70
     1
102
RTVSPropertyOp31
 70
     1
102
RTVSPropertyOp32
 70
     1
  0
XRECORD
  5
38E
102
{ACAD_REACTORS
330
38D
102
}
330
38D
100
AcDbXrecord
280
     1
102
RTVSPropertyOp0
 70
     1
102
RTVSPropertyOp1
 70
     1
102
RTVSPropertyOp2
 70
     1
102
RTVSPropertyOp3
 70
     1
102
RTVSPropertyOp4
 70
     1
102
RTVSPropertyOp5
 70
     1
102
RTVSPropertyOp6
 70
     1
102
RTVSPropertyOp7
 70
     1
102
RTVSPropertyOp8
 70
     1
102
RTVSPropertyOp9
 70
     1
102
RTVSPropertyOp10
 70
     1
102
RTVSPropertyOp11
 70
     1
102
RTVSPropertyOp12
 70
     1
102
RTVSPropertyOp13
 70
     1
102
RTVSPropertyOp14
 70
     1
102
RTVSPropertyOp15
 70
     1
102
RTVSPropertyOp16
 70
     1
102
RTVSPropertyOp17
 70
     1
102
RTVSPropertyOp18
 70
     1
102
RTVSPropertyOp19
 70
     1
102
RTVSPropertyOp20
 70
     1
102
RTVSPropertyOp21
 70
     1
102
RTVSPropertyOp22
 70
     1
102
RTVSPropertyOp23
 70
     1
102
RTVSPropertyOp24
 70
     1
102
RTVSPropertyOp25
 70
     1
102
RTVSPropertyOp26
 70
     1
102
RTVSPropertyOp27
 70
     1
102
RTVSPropertyOp28
 70
     1
102
RTVSPropertyOp29
 70
     1
102
RTVSPropertyOp30
 70
     1
102
RTVSPropertyOp31
 70
     1
102
RTVSPropertyOp32
 70
     1
  0
XRECORD
  5
396
102
{ACAD_REACTORS
330
395
102
}
330
395
100
AcDbXrecord
280
     1
102
RTVSPropertyOp0
 70
     1
102
RTVSPropertyOp1
 70
     1
102
RTVSPropertyOp2
 70
     1
102
RTVSPropertyOp3
 70
     1
102
RTVSPropertyOp4
 70
     1
102
RTVSPropertyOp5
 70
     1
102
RTVSPropertyOp6
 70
     1
102
RTVSPropertyOp7
 70
     1
102
RTVSPropertyOp8
 70
     1
102
RTVSPropertyOp9
 70
     1
102
RTVSPropertyOp10
 70
     1
102
RTVSPropertyOp11
 70
     1
102
RTVSPropertyOp12
 70
     1
102
RTVSPropertyOp13
 70
     1
102
RTVSPropertyOp14
 70
     1
102
RTVSPropertyOp15
 70
     1
102
RTVSPropertyOp16
 70
     1
102
RTVSPropertyOp17
 70
     1
102
RTVSPropertyOp18
 70
     1
102
RTVSPropertyOp19
 70
     1
102
RTVSPropertyOp20
 70
     1
102
RTVSPropertyOp21
 70
     1
102
RTVSPropertyOp22
 70
     1
102
RTVSPropertyOp23
 70
     1
102
RTVSPropertyOp24
 70
     1
102
RTVSPropertyOp25
 70
     1
102
RTVSPropertyOp26
 70
     1
102
RTVSPropertyOp27
 70
     1
102
RTVSPropertyOp28
 70
     1
102
RTVSPropertyOp29
 70
     1
102
RTVSPropertyOp30
 70
     1
102
RTVSPropertyOp31
 70
     1
102
RTVSPropertyOp32
 70
     1
  0
XRECORD
  5
37A
102
{ACAD_REACTORS
330
379
102
}
330
379
100
AcDbXrecord
280
     1
102
RTVSPropertyOp0
 70
     1
102
RTVSPropertyOp1
 70
     1
102
RTVSPropertyOp2
 70
     1
102
RTVSPropertyOp3
 70
     1
102
RTVSPropertyOp4
 70
     1
102
RTVSPropertyOp5
 70
     1
102
RTVSPropertyOp6
 70
     1
102
RTVSPropertyOp7
 70
     1
102
RTVSPropertyOp8
 70
     1
102
RTVSPropertyOp9
 70
     1
102
RTVSPropertyOp10
 70
     1
102
RTVSPropertyOp11
 70
     1
102
RTVSPropertyOp12
 70
     1
102
RTVSPropertyOp13
 70
     1
102
RTVSPropertyOp14
 70
     1
102
RTVSPropertyOp15
 70
     1
102
RTVSPropertyOp16
 70
     1
102
RTVSPropertyOp17
 70
     1
102
RTVSPropertyOp18
 70
     1
102
RTVSPropertyOp19
 70
     1
102
RTVSPropertyOp20
 70
     1
102
RTVSPropertyOp21
 70
     1
102
RTVSPropertyOp22
 70
     1
102
RTVSPropertyOp23
 70
     1
102
RTVSPropertyOp24
 70
     1
102
RTVSPropertyOp25
 70
     1
102
RTVSPropertyOp26
 70
     1
102
RTVSPropertyOp27
 70
     1
102
RTVSPropertyOp28
 70
     1
102
RTVSPropertyOp29
 70
     1
102
RTVSPropertyOp30
 70
     1
102
RTVSPropertyOp31
 70
     1
102
RTVSPropertyOp32
 70
     1
  0
XRECORD
  5
37C
102
{ACAD_REACTORS
330
37B
102
}
330
37B
100
AcDbXrecord
280
     1
102
RTVSPropertyOp0
 70
     1
102
RTVSPropertyOp1
 70
     1
102
RTVSPropertyOp2
 70
     1
102
RTVSPropertyOp3
 70
     1
102
RTVSPropertyOp4
 70
     1
102
RTVSPropertyOp5
 70
     1
102
RTVSPropertyOp6
 70
     1
102
RTVSPropertyOp7
 70
     1
102
RTVSPropertyOp8
 70
     1
102
RTVSPropertyOp9
 70
     1
102
RTVSPropertyOp10
 70
     1
102
RTVSPropertyOp11
 70
     1
102
RTVSPropertyOp12
 70
     1
102
RTVSPropertyOp13
 70
     1
102
RTVSPropertyOp14
 70
     1
102
RTVSPropertyOp15
 70
     1
102
RTVSPropertyOp16
 70
     1
102
RTVSPropertyOp17
 70
     1
102
RTVSPropertyOp18
 70
     1
102
RTVSPropertyOp19
 70
     1
102
RTVSPropertyOp20
 70
     1
102
RTVSPropertyOp21
 70
     1
102
RTVSPropertyOp22
 70
     1
102
RTVSPropertyOp23
 70
     1
102
RTVSPropertyOp24
 70
     1
102
RTVSPropertyOp25
 70
     1
102
RTVSPropertyOp26
 70
     1
102
RTVSPropertyOp27
 70
     1
102
RTVSPropertyOp28
 70
     1
102
RTVSPropertyOp29
 70
     1
102
RTVSPropertyOp30
 70
     1
102
RTVSPropertyOp31
 70
     1
102
RTVSPropertyOp32
 70
     1
  0
XRECORD
  5
37E
102
{ACAD_REACTORS
330
37D
102
}
330
37D
100
AcDbXrecord
280
     1
102
RTVSPropertyOp0
 70
     1
102
RTVSPropertyOp1
 70
     1
102
RTVSPropertyOp2
 70
     1
102
RTVSPropertyOp3
 70
     1
102
RTVSPropertyOp4
 70
     1
102
RTVSPropertyOp5
 70
     1
102
RTVSPropertyOp6
 70
     1
102
RTVSPropertyOp7
 70
     1
102
RTVSPropertyOp8
 70
     1
102
RTVSPropertyOp9
 70
     1
102
RTVSPropertyOp10
 70
     1
102
RTVSPropertyOp11
 70
     1
102
RTVSPropertyOp12
 70
     1
102
RTVSPropertyOp13
 70
     1
102
RTVSPropertyOp14
 70
     1
102
RTVSPropertyOp15
 70
     1
102
RTVSPropertyOp16
 70
     1
102
RTVSPropertyOp17
 70
     1
102
RTVSPropertyOp18
 70
     1
102
RTVSPropertyOp19
 70
     1
102
RTVSPropertyOp20
 70
     1
102
RTVSPropertyOp21
 70
     1
102
RTVSPropertyOp22
 70
     1
102
RTVSPropertyOp23
 70
     1
102
RTVSPropertyOp24
 70
     1
102
RTVSPropertyOp25
 70
     1
102
RTVSPropertyOp26
 70
     1
102
RTVSPropertyOp27
 70
     1
102
RTVSPropertyOp28
 70
     1
102
RTVSPropertyOp29
 70
     1
102
RTVSPropertyOp30
 70
     1
102
RTVSPropertyOp31
 70
     1
102
RTVSPropertyOp32
 70
     1
  0
XRECORD
  5
380
102
{ACAD_REACTORS
330
37F
102
}
330
37F
100
AcDbXrecord
280
     1
102
RTVSPropertyOp0
 70
     1
102
RTVSPropertyOp1
 70
     1
102
RTVSPropertyOp2
 70
     1
102
RTVSPropertyOp3
 70
     1
102
RTVSPropertyOp4
 70
     1
102
RTVSPropertyOp5
 70
     1
102
RTVSPropertyOp6
 70
     1
102
RTVSPropertyOp7
 70
     1
102
RTVSPropertyOp8
 70
     1
102
RTVSPropertyOp9
 70
     1
102
RTVSPropertyOp10
 70
     1
102
RTVSPropertyOp11
 70
     1
102
RTVSPropertyOp12
 70
     1
102
RTVSPropertyOp13
 70
     1
102
RTVSPropertyOp14
 70
     1
102
RTVSPropertyOp15
 70
     1
102
RTVSPropertyOp16
 70
     1
102
RTVSPropertyOp17
 70
     1
102
RTVSPropertyOp18
 70
     1
102
RTVSPropertyOp19
 70
     1
102
RTVSPropertyOp20
 70
     1
102
RTVSPropertyOp21
 70
     1
102
RTVSPropertyOp22
 70
     1
102
RTVSPropertyOp23
 70
     1
102
RTVSPropertyOp24
 70
     1
102
RTVSPropertyOp25
 70
     1
102
RTVSPropertyOp26
 70
     1
102
RTVSPropertyOp27
 70
     1
102
RTVSPropertyOp28
 70
     1
102
RTVSPropertyOp29
 70
     1
102
RTVSPropertyOp30
 70
     1
102
RTVSPropertyOp31
 70
     1
102
RTVSPropertyOp32
 70
     1
  0
XRECORD
  5
394
102
{ACAD_REACTORS
330
393
102
}
330
393
100
AcDbXrecord
280
     1
102
RTVSPropertyOp0
 70
     1
102
RTVSPropertyOp1
 70
     1
102
RTVSPropertyOp2
 70
     1
102
RTVSPropertyOp3
 70
     1
102
RTVSPropertyOp4
 70
     1
102
RTVSPropertyOp5
 70
     1
102
RTVSPropertyOp6
 70
     1
102
RTVSPropertyOp7
 70
     1
102
RTVSPropertyOp8
 70
     1
102
RTVSPropertyOp9
 70
     1
102
RTVSPropertyOp10
 70
     1
102
RTVSPropertyOp11
 70
     1
102
RTVSPropertyOp12
 70
     1
102
RTVSPropertyOp13
 70
     1
102
RTVSPropertyOp14
 70
     1
102
RTVSPropertyOp15
 70
     1
102
RTVSPropertyOp16
 70
     1
102
RTVSPropertyOp17
 70
     1
102
RTVSPropertyOp18
 70
     1
102
RTVSPropertyOp19
 70
     1
102
RTVSPropertyOp20
 70
     1
102
RTVSPropertyOp21
 70
     1
102
RTVSPropertyOp22
 70
     1
102
RTVSPropertyOp23
 70
     1
102
RTVSPropertyOp24
 70
     1
102
RTVSPropertyOp25
 70
     1
102
RTVSPropertyOp26
 70
     1
102
RTVSPropertyOp27
 70
     1
102
RTVSPropertyOp28
 70
     1
102
RTVSPropertyOp29
 70
     1
102
RTVSPropertyOp30
 70
     1
102
RTVSPropertyOp31
 70
     1
102
RTVSPropertyOp32
 70
     1
  0
XRECORD
  5
38A
102
{ACAD_REACTORS
330
389
102
}
330
389
100
AcDbXrecord
280
     1
102
RTVSPropertyOp0
 70
     1
102
RTVSPropertyOp1
 70
     1
102
RTVSPropertyOp2
 70
     1
102
RTVSPropertyOp3
 70
     1
102
RTVSPropertyOp4
 70
     1
102
RTVSPropertyOp5
 70
     1
102
RTVSPropertyOp6
 70
     1
102
RTVSPropertyOp7
 70
     1
102
RTVSPropertyOp8
 70
     1
102
RTVSPropertyOp9
 70
     1
102
RTVSPropertyOp10
 70
     1
102
RTVSPropertyOp11
 70
     1
102
RTVSPropertyOp12
 70
     1
102
RTVSPropertyOp13
 70
     1
102
RTVSPropertyOp14
 70
     1
102
RTVSPropertyOp15
 70
     1
102
RTVSPropertyOp16
 70
     1
102
RTVSPropertyOp17
 70
     1
102
RTVSPropertyOp18
 70
     1
102
RTVSPropertyOp19
 70
     1
102
RTVSPropertyOp20
 70
     1
102
RTVSPropertyOp21
 70
     1
102
RTVSPropertyOp22
 70
     1
102
RTVSPropertyOp23
 70
     1
102
RTVSPropertyOp24
 70
     1
102
RTVSPropertyOp25
 70
     1
102
RTVSPropertyOp26
 70
     1
102
RTVSPropertyOp27
 70
     1
102
RTVSPropertyOp28
 70
     1
102
RTVSPropertyOp29
 70
     1
102
RTVSPropertyOp30
 70
     1
102
RTVSPropertyOp31
 70
     1
102
RTVSPropertyOp32
 70
     1
  0
XRECORD
  5
392
102
{ACAD_REACTORS
330
391
102
}
330
391
100
AcDbXrecord
280
     1
102
RTVSPropertyOp0
 70
     1
102
RTVSPropertyOp1
 70
     1
102
RTVSPropertyOp2
 70
     1
102
RTVSPropertyOp3
 70
     1
102
RTVSPropertyOp4
 70
     1
102
RTVSPropertyOp5
 70
     1
102
RTVSPropertyOp6
 70
     1
102
RTVSPropertyOp7
 70
     1
102
RTVSPropertyOp8
 70
     1
102
RTVSPropertyOp9
 70
     1
102
RTVSPropertyOp10
 70
     1
102
RTVSPropertyOp11
 70
     1
102
RTVSPropertyOp12
 70
     1
102
RTVSPropertyOp13
 70
     1
102
RTVSPropertyOp14
 70
     1
102
RTVSPropertyOp15
 70
     1
102
RTVSPropertyOp16
 70
     1
102
RTVSPropertyOp17
 70
     1
102
RTVSPropertyOp18
 70
     1
102
RTVSPropertyOp19
 70
     1
102
RTVSPropertyOp20
 70
     1
102
RTVSPropertyOp21
 70
     1
102
RTVSPropertyOp22
 70
     1
102
RTVSPropertyOp23
 70
     1
102
RTVSPropertyOp24
 70
     1
102
RTVSPropertyOp25
 70
     1
102
RTVSPropertyOp26
 70
     1
102
RTVSPropertyOp27
 70
     1
102
RTVSPropertyOp28
 70
     1
102
RTVSPropertyOp29
 70
     1
102
RTVSPropertyOp30
 70
     1
102
RTVSPropertyOp31
 70
     1
102
RTVSPropertyOp32
 70
     1
  0
ENDSEC
  0
EOF
